Cifra Club

Aprenda

When I Come Around

Green Day

Tab de baixo: Principal
[Intro]

G|-----4h5p4---------|
D|--55---------------|
A|-------------------|
E|-------------------|                                                                               

Riff 1
G|-------4h5p4------------------45----------------------------|
D|--5-5---------------4h5p4-----------------------------------|
A|---------------5-5----------7------3--33--------------------|
E|------------------------------------------------------------|
(Essa levada dura quase que a música toda só mudando no refrão)

[Refrão]

G|----------------------------------------------------------------------------------|
D|------------------------------------------575-------------------------------------|
A|-3/---0-0-0-0-0-0-0-0--2-3-3-3-3-3-3-3-------7---0-0-0-0-0-0-0-0--2-333333333-----|
E|----------------------------------------------------------------------------------|
                                                                                
G|-----5p4-|
D|---------|
A|---------|
E|---------|
Composição de Billie Joe Armstrong / Green Day
Colaboração e revisão:
  • luis carvalho
46.315 exibições

0 comentários

Mostrar mais comentários

Conseguiu tocar?

1 Tocaram 0 Ainda não

Grave um vídeo tocando When I Come Around e mande pra gente!

00:00 / 00:00
outros vídeos desta música
repetir qualidade Automático
Outros vídeos desta música
00:00 / 00:00
Automático

Cifra Club Pro

Aproveite o Cifra Club com benefícios exclusivos e sem anúncios
7 dias grátis
Cifra Club Pro
Aproveite o Cifra Club com benefícios exclusivos e sem anúncios
7 dias grátis
OK