Cifra Club

Aprenda

Nightrain

Guns N' Roses

Tab de baixo: Principal
 Intro
  Fast Rock Q=148
              A5                      A
 4/4
  Gtr I
  W           W          +W           W           W          W
|----------||----------|------------|-----------|----------|------|
|----------||----------|------------|-7\--------|----------|------|
|----------||-0--------|-(0)--------|-----------|----------|------|
|----------||----------|------------|-----------|----------|------|


             G                             G5A5
  H    E E E E   +E  E E E H      H    E E E E   +E  E E E H
|--------------|----------------|--------------|----------------|
|--------------|----------------|--------------|----------------|
|--------------|----------------|--------------|----------------|
|--------0-1-3-|-(3)-3-3--------|--------0-3-5-|-(5)-5-5--------|


  H    E E E E    +E  E E E H      H    E E E E
|--------------||----------------|--------------|
|--------5-6---||----------------|--------------|
|------------0-||-(0)-0-0--------|--------------|
|--------------||----------------|--------3-5-1-|


  +E  E E E H      H    E E E E   +E  E E E H
|----------------|--------------|----------------|
|----------------|--------------|----------------|
|----------------|--------------|----------------|
|-(1)-1-1--------|--------0-1-3-|-(3)-3-3--------|


  H    E E E E   +E  E E E E E E E   E E E E E E E E
|--------------|-------------------|-2-0-------------||
|--------------|-------------------|-----2-1-0-------||
|--------------|-------------------|-----------3---0-||
|--------0-3-5-|-(5)-5-5-5-5-5-5-5-|-------------3---||


 1st Verse
  +E  E E E E E E E   +E  E E E E E E E   +E  E E E E E E E
|-------------------|-------------------|-------------------|
|-------------------|-------------------|-------------------|
|-(0)-0-0---0-------|-------------------|-------------------|
|-------------0-3-5-|-(5)-5-5---5-0-3-5-|-(5)-5-5---5-5-5-5-|


  +E  E E E E E E E    E  E E E E E E E   +E  E E E E E E E
|-------------------|-------------------|-------------------|
|-------4-4-5-5-7---|-------------------|-------------------|
|-----------------0-|-(0)-0-0---0-0-0-0-|-(0)-0-0---0-------|
|-(5)-5-------------|-------------------|-------------0-3-5-|


                                          2nd Verse
  +E  E E E E E E E   +E  E E E E E E E    +E  E Q  E E E E
|-------------------|-------------------||------------------|
|-------------------|-----7-7---7-5-----||------------------|
|-------------------|---------0-----7-0-||-(0)-0-3--0-----0-|
|-(5)-5-5---5-5-5-5-|-(5)---------------||------------0-3---|


  +E  E Q  E E E E   +E  E Q  E E E E   +E  E Q  E E E E
|------------------|------------------|------------------|
|------------------|------------------|------------------|
|-(0)-0-3--0-----0-|-(0)-0-3--0-----0-|-(0)-0-3--0-----0-|
|------------0-3---|------------0-3---|------------0-3---|


  +E  E Q  E E E E   +E  E Q  E E E E   +W           +H..       E
|------------------|------------------|------------|--------------|
|------------------|------------------|------------|--------------|
|-(0)-0-3--0-----0-|-(0)-0-3--0-0-3-5-|-(5)--------|-(5)----------|
|------------0-3---|------------------|------------|--------------|


  W          H    E E E E   +E  E E E E E E E    E E E E E E E E
|----------|--------------|-------------------|-/2-2-2-2-2-6-----||
|----------|--------------|-------------------|--------------2---||
|----------|--------------|-------------------|----------------0-||
|----------|--------5-3-5-|-(5)-5-5-5-5-5-5-5-|------------------||


 3rd Verse
  +E  E E E E E E E    E  E E E E E E E
|-------------------|-------------------|
|-------------------|-------------------|
|-(0)-0-0---0---0-0-|-(0)-0-0---0-------|
|---------0---0-----|---------0---0-3-5-|


  +E  E E E E E E E   +E  E E E E E E E
|-------------------|-------------------|
|-------------------|-------------------|
|-------------------|-------------------|
|-(5)-5-5-0-5-0-5-5-|-(5)-5-5-0-5-0-5-5-|


  +E  E E E E E E E    E  E E E E E E E   +W           +H..       E
|-------------------|-------------------|------------|--------------|
|-------------------|-------------------|------------|--------------|
|-------------------|---------------3-5-|-(5)--------|-(5)----------|
|-(5)-5-5---5-0-3-5-|-(5)-5-5---5-5-----|------------|--------------|


  W          W          W          H    E E E E
|----------|----------|----------|--------------|
|----------|----------|----------|--------3-4-5-|
|----------|----------|----------|--------------|
|----------|----------|----------|--------------|


   E  E H.        +H     E E E E   +E  E E E E E E E   E E E E E E E E
|---------------|----------------|-------------------|-----------------||
|-(5)-5-5-------|-(5)----5-3-----|-------------------|-----3-4-5-------||
|---------------|------------5---|-------------------|-----------------||
|---------------|--------------3-|-(3)-3-3-3-3-3-3-3-|-3-3-------0-3-5-||


 Chorus
  +E  E E E E E E E   +E  E E E E E E E
|-------------------|-------------------|
|-------------------|-------------------|
|-------------------|-------------------|
|-(5)-5-5-5-5-0-3-5-|-(5)-5-5-5-5-0-3-5-|


  +E  E E E E E E E   +E  E E E E E E E
|-------------------|-------------------|
|-------------------|-----7-7---7-5-----|
|-------------------|---------0-----7---|
|-(5)-5-5-5-5-0-3-5-|-(5)-------------5-|


  +E  E E E E E E E   +E  E E E E E E E
|-------------------|-------------------|
|-------------------|-------------------|
|-------------------|-------------------|
|-(5)-5-5-5-5-0-3-5-|-(5)-5-5-5-5-5-3-1-|


  +E  E E E E E E E   +E  E E E E E E E
|-------------------|-------------------||
|-------------------|-------------------||
|-------------------|-------------------||
|-(1)-1-1-1-1-1-1-3-|-(3)-3-3-3-3-0-3-5-||


  +E  E E E E E E E   +E  E E E E E E E
|-------------------|-------------------|
|-------------------|-------------------|
|-------------------|-------------------|
|-(5)-5-5-5-5-0-3-5-|-(5)-5-5-5-5-0-3-5-|


  +E  E E E E E E E   +E  E E E +E  E E E
|-------------------|---------------------|
|-------------------|-----5-6-7-(7)-------|
|-------------------|---------------------|
|-(5)-5-5-5-5-0-3-5-|-(5)-----------0-3-5-|


  +E  E E E E E E E   +E  E E E E E E E   +W           +H..       E
|-------------------|-------------------|------------|--------------||
|-------------------|-----------7-5-----|------------|--------------||
|-------------------|---------------7-5-|-(5)--------|-(5)--------2-||
|-(5)-5-5-5-5-0-3-5-|-(5)-5-5-5---------|------------|--------------||


   Guitar Solo
    +E  E E E E E E E   +E  E E E E E E E   +E  E E E E E E E
||--------------------|-------------------|-------------------|
||o-------------------|-------------------|-------------------|
||o-(2)-0-2-0-0-2-2-2-|-(2)-0-2-2-2-------|-------------------|
||--------------------|-------------0-1-2-|-(2)-0-2-0-0-2-2-2-|


  1.                 2.
  +E  E Q  Q  E E     E E E E E E E E    Q.   E E E E E   +Q.   E E E E E
|------------------||-----------------||----------------|------------------|
|-----------------o||-----------------||----------------|------------------|
|-----------------o||-----------------||-5----5-5-5-5-5-|-(5)---5-5-5-5----|
|-(2)-0-2--2----2--||---2---3---4---5-||----------------|---------------2--|


  +Q.   E E E E E   +Q.   E E E E E   +Q.   E E E E E   +Q.   E E E E E
|-----------------|-----------------|-----------------|------------------|
|-----------------|-----------------|-----------------|------------------|
|-----------------|---------------5-|-(5)---5-5-5-5-5-|-(5)---5-5-5-5----|
|-(2)---2-2-2-2-2-|-(2)---2-2-2-2---|-----------------|---------------2--|


  +Q.   E E E E E   +E  E E E E E E E   +Q.   E E E E E   +Q.   E E E E E
|-----------------|-------------------|-----------------|------------------|
|-----------------|-----4-4-4-4-------|-----------------|------------------|
|-----------------|-------------3-4-5-|-(5)---5-5-5-5-5-|-(5)---5-5-5-5----|
|-(2)---2-2-2-2-2-|-(2)---------------|-----------------|---------------2--|


   Q.   E E E E E   +Q.   E E E E E   +Q.   E E E E E   +Q.   E E E E E
|-----------------|-----------------|-----------------|------------------|
|-----------------|-----------------|-----------------|------------------|
|-----------------|---------------5-|-(5)---5-5-5-5-5-|-(5)---5-5--------|
|-(2)---2-2-2-2-2-|-(2)---2-2-2-2---|-----------------|-----------0-1-2--|


  +E  E Q  E E E E   +E  E Q  E E E E   +E  E Q  E E E E   +E  E Q  E E E E
|------------------|------------------|------------------|-------------------|
|------------------|------------------|------------------|-------------------|
|------------------|------------------|------------------|-------------------|
|-(2)-2-2----2-1-0-|-(0)-0-0----0-1-2-|-(2)-2-2----2-1-0-|-(0)-0-0----0-1-2--|


   E  E Q  E E E E   +E  E H.        E E E E E E E E   E E E E E E E E
|------------------|---------------|-----------------|------------------||
|------------------|---------------|-----------------|------------------||
|------------------|---------------|-5-5-5-5-5-5-5-5-|-5-5-5-5-5-3-0-0--||
|-(2)-2-2----2-1-0-|-(0)-0-0-------|-----------------|------------------||


  +Q   E E Q  E E   +Q   E E Q  E E   +Q   E E E E E E    Q   E E E E E E
|-----------------|-----------------|------------------|-------------------|
|-----------------|-----------------|------------0-2-3-|-(3)--3------------|
|-(0)--0--------0-|-(0)--0----------|------------------|-------------------|
|-----------------|---------------1-|-(1)--1-----------|------------0-1-3--|


  +Q   E E Q  E E   +Q   E E Q  E E   +Q   E E Q  E E   +H     +E  E E E
|-----------------|-----------------|-----------------|-------------------||
|-----------------|-----------------|-----------------|-------------------||
|-----------------|---------------0-|-(0)--0--------3-|-(3)----(3)--------||
|-(3)--3--------3-|-(3)--3----------|-----------------|------------0-3-5--||


 Chorus
  +E  E E E E E E E   +E  E E E E E E E
|-------------------|-------------------|
|-------------------|-------------------|
|-------------------|-------------------|
|-(5)-5-5---5-0-3-5-|-(5)-5-5---5-5-3-1-|


  +E  E E E E E E E   +E  E E E E E E E
|-------------------|--------------------|
|-------------------|--------------------|
|-------------------|--------------------|
|-(1)-1-1---1-1-1-1-|-(1)-1-1---1-0-1-3--|


  +E  E E E E E E E   +E  E E E E E E E
|-------------------|-------------------|
|-------------------|-------------------|
|-------------------|-------------------|
|-(3)-3-3---3-3-3-3-|-(3)-3-3---3-0-3-5-|


  +E  E E E E E E E    E  E E E E E E E
|-------------------|--------------------||
|-------------------|--------------------||
|-------------------|--------------------||
|-(5)-5-5---5-5-5-5-|-(5)-5-5---5-5-3-5--||


 Chorus/Outro
  +E  E E E E E E E   +E  E E E E E E E
|-------------------|-------------------|
|-------------------|-------------------|
|-------------------|-------------------|
|-(5)-5-5---5-0-3-5-|-(5)-5-5---5-5-3-1-|


  +E  E E E E E E E   +E  E E E E E E E
|-------------------|--------------------|
|-------------------|--------------------|
|-------------------|--------------------|
|-(1)-1-1---1-1-1-1-|-(1)-1-1---1-0-1-3--|


  +E  E E E E E E E   +E  E E E E E E E
|-------------------|-------------------|
|-------------------|-------------------|
|-------------------|-------------------|
|-(3)-3-3---3-3-3-3-|-(3)-3-3---3-0-3-5-|


  +E  Q  E +E  Q  E   +E  Q  E +E  Q  E
|-------------------|--------------------||
|-------------------|-----4--5-(5)-6--7--||
|-----4--5-(5)-6--7-|-(7)----------------||
|-(5)---------------|--------------------||


  E E E E E E E E   +E  E E E E E E E   +E  E E E E E E E   +E  E E E E E E E
|-----------------|-------------------|-------------------|--------------------|
|-----------------|-------------------|-------------------|--------------------|
|-----------------|-------------------|-------------------|--------------------|
|-5-5-5---5-0-3-5-|-(5)-5-5---5-5-3-1-|-(1)-1-1---1-1-1-1-|-(1)-1-1---1-0-1-3--|


  +E  E E E E E E E   +E  E E E E E E E   +E  E E E E E E E   E E E E E E E E
|-------------------|-------------------|-------------------|------------------|
|-------------------|-------------------|-----7-7-7-7-7-7-7-|-7-7-7-7-7-5------|
|-------------------|-------------------|-------------------|-------------7----|
|-(3)-3-3---3-3-3-3-|-(3)-3-3---3-0-3-5-|-(5)---------------|---------------5--|


  E E E E E E E E   +E  E E E E E E E   +E  E E E E E E E   +E  E E E E E E E
|-----------------|-------------------|-------------------|--------------------|
|-----------------|-------------------|-------------------|--------------------|
|-----------------|-------------------|-------------------|--------------------|
|-5-5-5---5-0-3-5-|-(5)-5-5---5-5-3-1-|-(1)-1-1---1-1-1-1-|-(1)-1-1---1-0-1-3--|


   E  E E E E E E E   +E  E E E E E E E
|-------------------|-------------------|
|-------------------|-------------------|
|-------------------|-------------------|
|-(3)-3-3---3-3-3-3-|-(3)-3-3---3-0-3-5-|


   E  E E E E E E E   +E  E E E E E E E
|-------------------|--------------------|
|-------------5-5-7-|-(7)-7-7-7-7-5------|
|-------------------|---------------7----|
|-(5)-5-5-5-5-------|-----------------5--|


  E E E E E E E E   +E  E E E E E E E   +E  E E E E E E E   +E  E E E E E E E
|-----------------|-------------------|-------------------|--------------------|
|-----------------|-------------------|-------------------|--------------------|
|-----------------|-------------------|-------------------|--------------------|
|-5-5-5---5-0-3-5-|-(5)-5-5---5-5-3-1-|-(1)-1-1---1-1-1-1-|-(1)-1-1---1-0-1-3--|


   E  E E E E E E E   +E  E E E E E E E
|-------------------|-------------------|
|-------------------|-------------------|
|-------------------|-------------------|
|-(3)-3-3---3-3-3-3-|-(3)-3-3---3-0-3-5-|


   E  Q  E +E  Q  E   +E  Q  E +E  Q  E
|-------------------|--------------------|
|-(7)-5--4-(4)------|--------------------|
|--------------7--6-|-(6)-5--------------|
|-------------------|--------8-(8)-7--5--|


  E E E E E E E E   +E  E E E E E E E   +E  E E E E E E E   +E  E E E E E E E
|-----------------|-------------------|-------------------|--------------------|
|-----------------|-------------------|-------------------|--------------------|
|-----------------|-------------------|-------------------|--------------------|
|-5-5-5---5-0-3-5-|-(5)-5-5---5-5-3-1-|-(1)-1-1---1-1-1-1-|-(1)-1-1---1-0-1-3--|


   E  E E E E E E E   +E  E E E E E E E
|-------------------|-------------------|
|-------------------|-------------------|
|-------------------|-------------------|
|-(3)-3-3---3-3-1-3-|-(3)-3-3---3-0-3-5-|


  +E  E E E E E E E   +E  E E E E E E E
|-------------------|--------------------*|
|-------------------|--------------------*|
|-------------------|--------------------*|
|-(5)-5-5---5-5-5-5-|-(5)-5-5---5-0-3-5--*|
Composição de Axl Rose / Duff McKagan / Izzy Stradlin / Slash / Steven Adler
Colaboração e revisão:
  • Gabriel Leite
21.281 exibições

0 comentários

Mostrar mais comentários

Conseguiu tocar?

0 Tocaram 0 Ainda não

Grave um vídeo tocando Nightrain e mande pra gente!

00:00 / 00:00
outros vídeos desta música
repetir qualidade Automático
Outros vídeos desta música
00:00 / 00:00
Automático

Cifra Club Pro

Aproveite o Cifra Club com benefícios exclusivos e sem anúncios
7 dias grátis
Cifra Club Pro
Aproveite o Cifra Club com benefícios exclusivos e sem anúncios
7 dias grátis
OK