Cifra Club

Aprenda

Amo Até o Céu (part. Gabriel Gava, Lucas Lucco, Israel Novaes)

Gusttavo Lima

Cifra: Principal (violão e guitarra)
Tom: G
Intro: G Em7 C Cm7

E|------0--------3--0-----------------0|
B|-0h3-----3----3------3-----0--0--3---|
G|-------------0----------2------------|
D|-------------------------------------|
A|-------------------------------------|
E|-------------------------------------|

E|----3--2----------------|
B|---3------3-----3--1--0-|
G|--0----------0----------|
D|------------------------|
A|------------------------|
E|-0----------------------|

E|---------------------------|
B|----1--0----------3--1--0--|
G|---0------0----------------|
D|--2----------0h2-----------|
A|-3-------------------------|
E|---------------------------|

E|---------------0--|
B|----1--3/4--4--8--|
G|---1-----------0--|
D|--1------------5--|
A|-3-------------0--|
E|------------------|

(Verso)
E|-3--2--0-------|
B|----------3----|
G|-------------2-|
D|---------------|
A|---------------|
E|---------------|

G                         D/F#
Entrei em estado de choque
Em7
Quase que perdi você
C9
Eu sei que acidentes são fatais
Cm7
Fatalidade mesmo é nunca mais te ver

G                        D/F#
Já não faz nenhum sentido
Em7
Essa vida sem você
C9
Logo eu que te escolhi pra eternidade 
Cm7
Eternamente viveria Sempre ao lado seu 

(Pré refrão)
Am7             Em7
Estou imaginando
C9
Você me esperando
      G
Linda no altar
       D/F#       (verso)
Espere, vou chegar

Am7               Em7
Pra nossa surpresa
C9              G
A nossa igreja é aqui no céu
          D/F#      Am7
E Deus vai celebrar, vai celebrar


Refrão (2x):
G                           D/F#
Nosso casamento O nosso amor eterno
Em7
Só que dessa vez a noiva quem chegou
Am7
primeiro
                          C9     Cm7
Fiquei pra avisar o mundo inteiro

  Am7                     G/B
A última coisa que sobrou daqueles
         C9
destroços
    Cm7                G
Foi essa aliança no meu bolso
        D/F#   Em7
Me dê a sua mão...

(C Cm7 Em(no5)/G)

G                         D/F#
Entrei em estado de choque
Em7
Quase que perdi você
C9
Eu sei que acidentes são fatais
Cm7
Fatalidade mesmo é nunca mais te ver

G                        D/F#
Já não faz nenhum sentido
Em7
Essa vida sem você
C9
Logo eu que te escolhi pra eternidade 
C#m7
Eternamente viveria Sempre ao lado seu 

(Pré refrão)
Am7             Em7
Estou imaginando
C9
Você me esperando
      G
Linda no altar
       D/F#       (verso)
Espere, vou chegar

Am7               Em7
Pra nossa surpresa
C9              G
A nossa igreja é aqui no céu
          D/F#      Am7
E Deus vai celebrar, vai celebrar


Refrão (2x):
G                           D/F#
Nosso casamento O nosso amor eterno
Em7
Só que dessa vez a noiva quem chegou
Am7
primeiro
                          C9     Cm7
Fiquei pra avisar o mundo inteiro

  Am7                     G/B
A última coisa que sobrou daqueles
         C9
destroços
    Cm7                G
Foi essa aliança no meu bolso
        D/F#   Em7
Me dê a sua mão...

 Am7                     G/B
A última coisa que sobrou daqueles
         C9
destroços
    Cm7                G
Foi essa aliança no meu bolso
Colaboração e revisão:
  • Marisa Silva
  • João Victtor
17.103 exibições
    • ½ Tom
    • A
    • Bb
    • B
    • C
    • Db
    • D
    • Eb
    • E
    • F
    • F#
    • G
    • Ab
  • Adicionar à lista

    0 comentários

    Mostrar mais comentários

    Conseguiu tocar?

    0 Tocaram 0 Ainda não

    Grave um vídeo tocando Amo Até o Céu (part. Gabriel Gava, Lucas Lucco, Israel Novaes) e mande pra gente!

    00:00 / 00:00
    outros vídeos desta música
    repetir qualidade Automático
    Outros vídeos desta música
    00:00 / 00:00
    Automático
    OK