Cifra Club

Tudo Que Vai Um Dia Volta

Gusttavo Lima

Cifra: Principal (violão e guitarra)
Tom: G
[Intro] G  C9

E|-----3-2-2h3p2-0-0----------------------8-|
B|-2/4---------------3-3-3-1h3-3/5----5/8---|
G|---------------------------------0--------|
D|------------------------------------------|
A|------------------------------------------|
E|------------------------------------------|

[Primeira Parte]

                C9
Você tá tão de boa, né?
              D4
Só o seu coração que tá de pé
                 Em7
O seu sorriso é de quem superou
                     G
Se foi tão fácil, é porque não existiu amor

C9                              
  Não é que eu tô te desejando mal
D4
  Mas como vou desejar sorte pra um casal
           Em7
Que não seja eu e você?
            G
Meu Deus, que raiva de você, iê

[Pré-Refrão]
  
   C9
Tomara que no seu encontro com ele você quebre a cara
 
Tomara, tomara
       D
Que a taça de vinho derrame
                          Em7  G
Da sua boca escape meu nome
               C9  Am7
Pra você aprender
               D
Pra você aprender

[Refrão]

                            C9
Porque tudo que vai um dia volta
                            Am7
Você é o motivo da minha revolta
                              G                   D
Confesso que eu tô torcendo pra você terminar com ele

                            C9
Porque tudo que vai um dia volta
                            Am7
Você é o motivo da minha revolta
                              G                   D
Confesso que eu tô torcendo pra você terminar com ele
                 Am7
Afinal, um arranhão 
           D                       G
Não passa perto do estrago que fez   no meu coração

[Solo] C9  Am7  G  D

E|-------15-14-14h15p14-12-12\10------------|
B|------------------------------------------|
G|-14/16------------------------------------|
D|------------------------------------------|
A|------------------------------------------|
E|------------------------------------------|

E|-10-10-10-7h10-10/12----------------------|
B|------------------------------------------|
G|------------------------------------------|
D|------------------------------------------|
A|------------------------------------------|
E|------------------------------------------|

E|--------7-8-7---------7-8----7------------|
B|-7/8-10--------7/8-10-----10---8-10-7-8---|
G|------------------------------------------|
D|------------------------------------------|
A|------------------------------------------|
E|------------------------------------------|

E|--------------10-8------------------------|
B|-5-7-5\3--5/7-----------------------------|
G|------------------------------------------|
D|------------------------------------------|
A|------------------------------------------|
E|------------------------------------------|

[Pré-Refrão]
  
   C9
Tomara que no seu encontro com ele você quebre a cara
 
Tomara, tomara
       D
Que a taça de vinho derrame
                          Em7  G
Da sua boca escape meu nome
               C9  Am7
Pra você aprender
               D
Pra você aprender

[Refrão]

                            C9
Porque tudo que vai um dia volta
                            Am7
Você é o motivo da minha revolta
                              G                   D
Confesso que eu tô torcendo pra você terminar com ele

                            C9
Porque tudo que vai um dia volta
                            Am7
Você é o motivo da minha revolta
                              G                   D   E
Confesso que eu tô torcendo pra você terminar com ele

                            D9
Porque tudo que vai um dia volta
                            Bm7
Você é o motivo da minha revolta
                              A                   E
Confesso que eu tô torcendo pra você terminar com ele

                            D9
Porque tudo que vai um dia volta
                            Bm7
Você é o motivo da minha revolta
                              A                   E
Confesso que eu tô torcendo pra você terminar com ele

                 Bm7
Afinal, um arranhão 
           E                       A
Não passa perto do estrago que fez   no meu coração
exibições 79.959
Acordes para:

    0 comentários

    mostrar mais comentários

    Conseguiu tocar?

    7 tocaram 1 ainda não

    Grave um vídeo tocando Tudo Que Vai Um Dia Volta e mande pra gente!

    00:00 / 00:00
    outros vídeos desta música
    repetir qualidade Automático
    Outros vídeos desta música
    00:00 / 00:00
    Automático
    OK