Cifra Club

Blood on the Ground

Incubus

Cifra: Principal
exibições 4.764
Tom: C
Tuning - Dropped D (DADGBE)

Opening chord (A bit of overdrive and a bit of flange)
e---------0---
B-------7-----
G-----7------- let ring
D---0--------- 
A------------- 
E------------- 

Intro 8x                     Fill (on 4)
e--------------------------  -----------
B--7-x-7-7-7 x-7-----------  ---7-7-7-7-7-7-7--  Gradually bend both strings up and back down
G--7-x-7-7-7 x-7-----------  ---7-7-7-7-7-7-7--
D-----------------9-9-3-3--  ------------------
A-----------------9-9-3-3--  ------------------
E-----------------9-9-3-3--  ------------------

Main part: Full distortion, no flange
e---------------------------|------|-------------------------------
B--7--7-----7---------------|------|-------------------------------
G--7--7-----7---------------|------|-------------------------------
D--0--0-0-0-0--0-0-9-9-3-3--|--X3--|---5--5-5-5-5--3-3-3-3-3-3-3---   Repeat
A--0--0-0-0-0--0-0-9-9-3-3--|------|---5--5-5-5-5--3-3-3-3-3-3-3---
E--0--0-0-0-0--0-0-9-9-3-3--|------|---5--5-5-5-5--3-3-3-3-3-3-3---   

Verse: Clean
e---------------------------------
B---------------------------------  X6, then for the last do it another 4 times with the 
G---------------------------------  flange on gradually releasing the palm mute
D------0-------7-------5-------5--
A----0-------7-------5-------3---- 
E--0-------7-------5-------3------
   * *     * *     * *     * *      * = Palm Mute 

pre chorus                     2nd pre chorus (after 2nd verse)
e------------------------------|-----------------------------------------------------------
B------------------------------|-----------------------------------------------------------
G------------------------------|-----------------------------------------------------------
D--7-7-7-5-5-5-3---3-3---x-3---|---7-7-7-5-5-5-3---3-3---x-3-----7-7-7-5-5-5-3---3-3-------
A--7-7-7-5-5-5-3---3-3---x-3---|---7-7-7-5-5-5-3---3-3---x-3-----7-7-7-5-5-5-3---3-3-------
E--7-7-7-5-5-5-3---3-3---x-3---|---7-7-7-5-5-5-3---3-3---x-3-----7-7-7-5-5-5-3---3-3-------


Heavy Part
e------------------------------|------|-------------------------------------
B------------------------------|------|-------------------7-7-7-7-7-7-7-7-7-  Gradually bend both strings
G------------------------------|------|-------------------7-7-7-7-7-7-7-7-7-  up and back down
D--0-0--0--0-0-0--0--9-9-3-3-0-|--X3--|-0-0--0--0-0-0--0--------------------
A--0-0--0--0-0-0--0--9-9-3-3-0-|------|-0-0--0--0-0-0--0--------------------
E--0-0--0--0-0-0--0--9-9-3-3-0-|------|-0-0--0--0-0-0--0--------------------


Intherlude (Slight Distortion with flange)
e----------------------------------------------------------0-----|
B--------(8)--------------(10)-----10-10-10-10-----------7-------|
G---------7------7---------9-------9--9--9--9----------7---------|
D----5----5------5---8-----8-------------------------0-----------|
A-------5----------------8---------------------------------------|
E--5---5-----------8---8-----------------------------------------|
                                   ^Bend these up    ^Let ring
Acordes para:

    0 comentários

      mostrar mais comentários

      Conseguiu tocar?

      0tocaram0ainda não

      Grave um vídeo tocando Blood on the Ground e mande pra gente!

      00:00 / 00:00
      outros vídeos desta música
      repetirqualidadeautomática
      Outro vídeos desta música
        00:00 / 00:00
        automática
        OK