Enviar cifraEntrar

The Trooper

Iron Maiden

Tab de baixo: Principal
exibições 103.701
Intro 1:

G|---9-9p7---7-7-7p5---5-5-5p4-----0-----------------
D|---------9---------7---------5-0------------------- (4x)
A|-7---------------------------------5---------------
E|---------------------------------------------------

Intro 2:

Parte 1 
G|---------------------------------------------------
D|-------------------------------------5------------- (2x)
A|-7-7-7-7-7-7-7-7-7-7-7-7-7-7-7-7-0-5---5-----------
E|---------------------------------------------------

Parte 2
G|---------------------------------------------------
D|-------------------------------------5-------------
A|-3-3-3-3-3-3-3-3-3-3-3-3-3-3-3-3-0-5---5-----------
E|---------------------------------------------------

Repete parte 1 
G|---------------------------------------------------
D|-------------------------------------5------------- (3x)
A|-7-7-7-7-7-7-7-7-7-7-7-7-7-7-7-7-0-5---5-----------
E|---------------------------------------------------

Repete parte 2
G|---------------------------------------------------
D|-------------------------------------5-------------
A|-3-3-3-3-3-3-3-3-3-3-3-3-3-3-3-3-0-5---5-----------
E|---------------------------------------------------

Repete parte 1 
G|---------------------------------------------------
D|-------------------------------------5-------------
A|-7-7-7-7-7-7-7-7-7-7-7-7-7-7-7-7-0-5---5-----------
E|---------------------------------------------------

Primeira parte:

Parte 1
G|---------------------------------------------------
D|-----5-------5-------5-------5---------------------
A|-7-5---5-7-5---5-3-5---5-7-5---5-------------------
E|---------------------------------------------------
You'll take my life but I'll take yours too
You'll fire your musket but I'll run you through
So when you're waiting for the next attack
You'd better stand there's no turning back.

Parte 2
G|---------------------------------------------------
D|-------------------------------------5------------- (2x)
A|-7-7-7-7-7-7-7-7-7-7-7-7-7-7-7-7-0-5---5----------- 
E|---------------------------------------------------
The bugle sounds and the charge begins
But on this battlefield no one wins

Parte 3
G|---------------------------------------------------
D|-------------------------------------5-------------
A|-3-3-3-3-3-3-3-3-3-3-3-3-3-3-3-3-0-5---5-----------
E|---------------------------------------------------
The smell of acrid smoke and horses breath

Parte 4
G|---------------------------------------------------
D|-------------------------------------5-------------
A|-7-7-7-7-7-7-7-7-7-7-7-7-7-7-7-7-0-5---5-----------
E|---------------------------------------------------
As I plunge on into certain death

Parte 4 (Variação)
G|---------------------------------------------------
D|---------------------------------------------------
A|-7-7-7-7-7-7-7-7-7-7-7-7-7-7-7-7-7-7-7-7-7---------
E|---------------------------------------------------

Refrão:
G|---------------------------------------------------
D|---------------------------------------------------
A|-5-5-5-5-5-5-5-5-5-5-5-5-5-5-5-5-5-5-5-5-5---------
E|---------------------------------------------------

G|---------------------------------------------------
D|---------------------------------------------------
A|-7-7-7-7-7-7-7-7-7-7-7-7-7-7-7-7-7-7-7-7-7---------
E|---------------------------------------------------

G|---------------------------------------------------
D|---------------------------------------------------
A|-5-5-5-5-5-5-5-5-5-5-5-5-5-5-5-5-5-5-5-5-5---------
E|---------------------------------------------------

G|---------------------------------------------------
D|-------------------------------------5-------------
A|-7-7-7-7-7-7-7-7-7-7-7-7-7-7-7-7-0-5---5-----------
E|---------------------------------------------------

(...)
Oooh oooh oooh oooh oooh oooh oooh oooh oooooh
Oooh oooh oooh oooh oooh oooh oooh oooh oooooh

Interlúdio 2x:

G|---------------------------------------------------
D|-------------------------------------5-------------  (2x)
A|-7-7-7-7-7-7-7-7-7-7-7-7-7-7-7-7-0-5---5-----------
E|---------------------------------------------------

G|---------------------------------------------------
D|-------------------------------------3-------------
A|-3-3-3-3-3-3-3-3-3-3-3-3-3-3-3-3-0-3---3-----------
E|---------------------------------------------------

G|---------------------------------------------------
D|-------------------------------------5-------------
A|-5-5-5-5-5-5-5-5-5-5-5-5-5-5-5-5-0-5---5-----------
E|---------------------------------------------------

Repetição da Primeira Parte:

Parte 2
G|---------------------------------------------------
D|-------------------------------------5------------- (2x)
A|-7-7-7-7-7-7-7-7-7-7-7-7-7-7-7-7-0-5---5-----------
E|---------------------------------------------------
The horse he sweats with fear we break to run
The mighty roar of the Russian guns

Parte 3 
G|---------------------------------------------------
D|-------------------------------------5-------------
A|-3-3-3-3-3-3-3-3-3-3-3-3-3-3-3-3-0-5---5-----------
E|---------------------------------------------------
And as we race towards the human wall

Repete Parte 2
G|---------------------------------------------------
D|-------------------------------------5------------- (3x)
A|-7-7-7-7-7-7-7-7-7-7-7-7-7-7-7-7-0-5---5-----------
E|---------------------------------------------------
The screams of pain as my comrades fall
We hurdle bodies that lay on the ground
And the Russians fire another round

Repete Parte 3 
G|---------------------------------------------------
D|-------------------------------------5-------------
A|-3-3-3-3-3-3-3-3-3-3-3-3-3-3-3-3-0-5---5-----------
E|---------------------------------------------------
We get so near yet so far away

Parte 4
G|---------------------------------------------------
D|---------------------------------------------------
A|-7-7-7-7-7-7-7-7-7-7-7-7-7-7-7-7-7-7-7-7-7---------
E|---------------------------------------------------
We won't live to fight another day

Refrão:
G|---------------------------------------------------
D|---------------------------------------------------
A|-5-5-5-5-5-5-5-5-5-5-5-5-5-5-5-5-5-5-5-5-5---------
E|---------------------------------------------------

G|---------------------------------------------------
D|---------------------------------------------------
A|-7-7-7-7-7-7-7-7-7-7-7-7-7-7-7-7-7-7-7-7-7---------
E|---------------------------------------------------

G|---------------------------------------------------
D|---------------------------------------------------
A|-5-5-5-5-5-5-5-5-5-5-5-5-5-5-5-5-5-5-5-5-5---------
E|---------------------------------------------------

G|---------------------------------------------------
D|-------------------------------------5-------------
A|-7-7-7-7-7-7-7-7-7-7-7-7-7-7-7-7-0-5---5-----------
E|---------------------------------------------------

(...)
Oooh oooh oooh oooh oooh oooh oooh oooh oooooh
Oooh oooh oooh oooh oooh oooh oooh oooh oooooh

Solo: Primeira Parte 
                                                  1/4
G|---------------------------------------------------
D|---------------------------------------------------
A|-7-7-7-7-7-7-7-7-7-7-0-5-5-5-5-5-5-5-5-5-5-0-------
E|---------------------------------------------------
                                                         (3x)
                                                 2/4
G|---------------------------5---------7-------------
D|-------------------------5---------7---------------
A|-2-2-2-2-2-2-2-2-2-2-0-3-----3-3/5-----5-----------
E|---------------------------------------------------

                                                  3/4
G|---------------------------------------------------
D|---------------------------------------------------
A|-7-7-7-7-7-7-7-7-7-7-0-5-5-5-5-5-5-5-5-5-5-0-------
E|---------------------------------------------------

                                                  4/4
G|---------------------------5-----------------------
D|-------------------------5-------5-----------------
A|-2-2-2-2-2-2-2-2-2-2-0-3-----3/5---5---------------
E|---------------------------------------------------

Solo: Segunda Parte 
                                                  1/4
G|---------------------------------------------------
D|-7-7-7-7-7-7-7-7-7-7-0-5-5-5-5-5-5-5-5-5-5-0-------
A|---------------------------------------------------
E|---------------------------------------------------
                                                       (3x)
                                                  2/4
G|---------------------------5---------7-------------
D|-2-2-2-2-2-2-2-2-2-2-0-3-3---3-3/5-5---5-----------
A|---------------------------------------------------
E|---------------------------------------------------

                                                  3/4
G|---------------------------------------------------
D|-7-7-7-7-7-7-7-7-7-7-0-5-5-5-5-5-5-5-5-5-5-0-------
A|---------------------------------------------------
E|---------------------------------------------------

                                                  4/4
G|---------------------------5-----------------------
D|-2-2-2-2-2-2-2-2-2-2-0-3-3---3---5-----------------
A|-------------------------------5---5---------------
E|---------------------------------------------------

Interlúdio 2x:
G|---------------------------------------------------
D|-------------------------------------5-------------  (2x)
A|-7-7-7-7-7-7-7-7-7-7-7-7-7-7-7-7-0-5---5-----------
E|---------------------------------------------------

G|---------------------------------------------------
D|-------------------------------------3-------------
A|-3-3-3-3-3-3-3-3-3-3-3-3-3-3-3-3-0-3---3-----------
E|---------------------------------------------------

G|---------------------------------------------------
D|-------------------------------------5-------------
A|-5-5-5-5-5-5-5-5-5-5-5-5-5-5-5-5-0-5---5-----------
E|---------------------------------------------------

Repetição da Primeira Parte:

Parte 2
G|---------------------------------------------------
D|-------------------------------------5-------------
A|-7-7-7-7-7-7-7-7-7-7-7-7-7-7-7-7-0-5---5-----------  (2x)
E|---------------------------------------------------
We get so close near enough to fight
When a Russian gets me in his sights

Parte 3
G|---------------------------------------------------
D|-------------------------------------5-------------
A|-3-3-3-3-3-3-3-3-3-3-3-3-3-3-3-3-0-5---5-----------
E|---------------------------------------------------
He pulls the trigger and I feel the blow

Repete Parte 2
G|---------------------------------------------------
D|-------------------------------------5-------------
A|-7-7-7-7-7-7-7-7-7-7-7-7-7-7-7-7-0-5---5-----------  (3x)
E|---------------------------------------------------
A burst of rounds take my horse below
And as I lay there gazing at the sky
My body's numb and my throat is dry

Repete Parte 3
G|---------------------------------------------------
D|-------------------------------------5-------------
A|-3-3-3-3-3-3-3-3-3-3-3-3-3-3-3-3-0-5---5-----------
E|---------------------------------------------------
And as I lay forgotten and alone

Parte 4
G|---------------------------------------------------
D|---------------------------------------------------
A|-7-7-7-7-7-7-7-7-7-7-7-7-7-7-7-7-7-7-7-7-7---------
E|---------------------------------------------------
Without a tear I draw my parting groan

Refrão:
G|---------------------------------------------------
D|---------------------------------------------------
A|-5-5-5-5-5-5-5-5-5-5-5-5-5-5-5-5-5-5-5-5-5---------
E|---------------------------------------------------

G|---------------------------------------------------
D|---------------------------------------------------
A|-7-7-7-7-7-7-7-7-7-7-7-7-7-7-7-7-7-7-7-7-7---------
E|---------------------------------------------------

G|---------------------------------------------------
D|---------------------------------------------------
A|-5-5-5-5-5-5-5-5-5-5-5-5-5-5-5-5-5-5-5-5-5---------
E|---------------------------------------------------

G|---------------------------------------------------
D|-------------------------------------5-------------
A|-7-7-7-7-7-7-7-7-7-7-7-7-7-7-7-7-0-5---5-----------
E|---------------------------------------------------

(...)
Oooh oooh oooh oooh oooh oooh oooh oooh oooooh
Oooh oooh oooh oooh oooh oooh oooh oooh oooooh

Final:
G|---9-9p7---7-7-7p5---5-5-5p4-----0-----------------
D|---------9---------7---------5-0------------------- (3x)
A|-7---------------------------------5---------------
E|---------------------------------------------------

G|---9-9p7---7-7-7p5---5-5-5p4-----0-----------------
D|---------9---------7---------5-0-------------------
A|-7---------------------------------5-7-------------
E|---------------------------------------------------
  • 1
  • 2
  • 3
  • 4
  • 5
  • 6
  • 7
  • 8
  • 9
  • 10
  • 11
  • 12
    Composição: Steve HarrisColaboração e revisão:
    • Filipe
    • celo

    0 comentários

      mostrar mais comentários
      00:00 / 00:00
      outros vídeos desta música
      repetirqualidadeautomática
      • automática
      Outro vídeos desta música
        Capítulos
        • Início
        • Tocando a música
        • Notas da Introdução (Parte 1)
        • Ensinando Introdução (Parte 1)
        • Notas da Introdução (Parte 2)
        • Ensinando Introdução (Parte 2)
        • Ensinando Primeira Parte
        • Notas do Refrão
        • Ensinando Refrão
        • Notas da Variação da Introdução (Parte 2)
        • Ensinando Variação da Introdução (Parte 2)
        • Notas da Base - Solo de Guitarra (Primeira Parte)
        • Ensinando Base - Solo de Guitarra (Primeira Parte)
        • Notas da Base - Solo de Guitarra (Segunda Parte)
        • Ensinando Base - Solo de Guitarra (Segunda Parte)
        • Encerramento
        00:00 / 00:00
        automática
        • automática
        1 versão de Tab de baixoexibiçõescontribuições
        1 versão de Tab de bateriaexibiçõescontribuições
        1 versão de Partiturasformatodownloadscontribuição
        fecharplay/pause subir/descer velocidade
        fechar
        OK
        Feedback