Cifra Club

Aprenda

Baader-Meinhof Blues

Legião Urbana

Tab de baixo: Principal
Intro 8x:
G|-------------------------- 
D|---------6---------------- 
A|----7-7-----7--5--7------- 
E|-------------------------- 

G|-------------------------------------------------------------------------------------------------------------
D|-------------------------------------------------------------------------------------------------------------
A|----9-9-9---9----5-5-5---5----7-7-7---7----7-7-7---7----9-9-9---9----5-5-5---5----7-7-7---7----7-7-7---7-----
E|----------9------------5------------7------------7------------9------------5------------7------------7-------

A violência é tão fascinante / E nossas vidas são tão normais / E você passa dia e noite sempre vê / Apartamentos acesos

G|-------------------------------------------------------------------------------------------------------------
D|-------------------------------------------------------------------------------------------------------------
A|----9-9-9---9----5-5-5---5----7-7-7---7----7-7-7---7----9-9-9---9----5-5-5---5----7-7-7---7----7-7-7---7-----
E|----------9------------5------------7------------7------------9------------5------------7------------7-------

Tudo parece ser tão real

G|-------------------------------------------------------------------------------------------------------------
D|-------------------------------------------------------------------------------------------------------------
A|----6--------------------------------------------------------------------------------------------------------
E|-------7--9--------------------------------------------------------------------------------------------------

Mas você viu esse filme também / Andando nas ruas / Pensei que podia ouvir

G|-------------------------------------------------------------------------------------------------------------
D|-------------------------------------------------------------------------------------------------------------
A|----9-9-9---9----5-5-5---5----7-7-7---7----7-7-7---7----9-9-9---9----5-5-5---5----7-7-7---7----7-7-7---7-----
E|----------9------------5------------7------------7------------9------------5------------7------------7-------

Alguém me chamando 

G|-------------------------------------------------------------------------------------------------------------
D|-------------------------------------------------------------------------------------------------------------
A|----6--------------------------------------------------------------------------------------------------------
E|-------7--9--------------------------------------------------------------------------------------------------

Dizendo o meu nome

G|-------------------------------------------------------------------------------------------------------------
D|-------------------------------------------------------------------------------------------------------------
A|----9-9-9---9----5-5-5---5----7-7-7---7----7-7-7---7---------------------------------------------------------
E|----------9------------5------------7------------7-----------------------------------------------------------

Já estou cheio de me sentir vazio. Meu corpo é quente e estou sentindo frio. Todo mundo sabe e ninguém quer mais saber. Afinal, amar ao próximo é tão démodé.

G|----------------------------------------------------------------------------------------------------------------------------------------------------
D|----------------------------------------------------------------------------------------------------------------------------------------------------
A|----------------------------------------------------------------------------------------------------------------------------------------------------
E|---(7)-----------(5)------------(7)-------------------(5)-------------(7)---------------(5)-------------------(7)-------------------------(5)-------

Repete 4x:
G|--------------------------
D|---------6----------------
A|----7-7-----7--5--7-------
E|--------------------------

O, o, o                                                                                       (Repete 4x)

G|-----------------------------------     G|-----------------------     G|-----------------------------------
D|-----------------------------------     D|------6----------------     D|-----------------------------------
A|---12---12---12---12---12---12-----     A|-7-7-----7--5--7-------     A|---12---12---12---12---12---12-----
E|-----------------------------------     E|-----------------------     E|-----------------------------------

G|-------------------------------------------------------------------------------------------------------------
D|-------------------------------------------------------------------------------------------------------------
A|----9-9-9---9----5-5-5---5----7-7-7---7----7-7-7---7----9-9-9---9----5-5-5---5----7-7-7---7----7-7-7---7-----
E|----------9------------5------------7------------7------------9------------5------------7------------7-------

E essa justiça desafinada / É tão humana e tão errada

G|-------------------------------------------------------------------------------------------------------------
D|-------------------------------------------------------------------------------------------------------------
A|----9-9-9---9----5-5-5---5----7-7-7---7----7-7-7---7----9-9-9---9----5-5-5---5----7-7-7---7----7-7-7---7-----
E|----------9------------5------------7------------7------------9------------5------------7------------7-------

Nós assistimos televisão também.

G|-------------------------------------------------------------------------------------------------------------
D|-------------------------------------------------------------------------------------------------------------
A|----6--------------------------------------------------------------------------------------------------------
E|-------7--9--------------------------------------------------------------------------------------------------

Qual é a diferença? / Não estatize meus sentimentos / Pra seu governo, o meu estado... 

G|-------------------------------------------------------------------------------------------------------------
D|-------------------------------------------------------------------------------------------------------------
A|----9-9-9---9----5-5-5---5----7-7-7---7----7-7-7---7----9-9-9---9----5-5-5---5----7-7-7---7----7-7-7---7-----
E|----------9------------5------------7------------7------------9------------5------------7------------7-------

É independente.

G|-------------------------------------------------------------------------------------------------------------
D|-------------------------------------------------------------------------------------------------------------
A|----6--------------------------------------------------------------------------------------------------------
E|-------7--9--------------------------------------------------------------------------------------------------

O, o, o...

G|-------------------------------------------------------------------------------------------------------------
D|-------------------------------------------------------------------------------------------------------------
A|----9-9-9---9----5-5-5---5----7-7-7---7----7-7-7---7----9-9-9---9----5-5-5---5----7-7-7---7----7-7-7---7-----
E|----------9------------5------------7------------7------------9------------5------------7------------7-------

Já estou cheio de me sentir vazio. Meu corpo é quente e estou sentindo frio. Todo mundo sabe e ninguém quer mais saber. Afinal, amar ao próximo é tão démodé.

G|----------------------------------------------------------------------------------------------------------------------------------------------------
D|----------------------------------------------------------------------------------------------------------------------------------------------------
A|----------------------------------------------------------------------------------------------------------------------------------------------------
E|---(7)-----------(5)------------(7)-------------------(5)-------------(7)---------------(5)-------------------(7)-------------------------(5)-------

G|--------------------------
D|---------6---------------- 
A|----7-7-----7--5--7-------
E|--------------------------

O, o, o                                                                             (Repete esta parte 4x)

G|-----------------------------------     G|-----------------------     G|-----------------------------------     G|-----------------------
D|-----------------------------------     D|------6----------------     D|-----------------------------------     D|-----------------------
A|---12---12---12---12---12---12-----     A|-7-7-----7--5--7-------     A|---12---12---12---12---12---12-----     A|-----7-----------------
E|-----------------------------------     E|-----------------------     E|-----------------------------------     E|-------0---------------
Composição de Dado Villa-Lobos / Marcelo Bonfá / Renato Russo
Colaboração e revisão:
  • Márcio Silva
4.628 exibições

0 comentários

Mostrar mais comentários
00:00 / 00:00
outros vídeos desta música
repetir qualidade Automático
Outros vídeos desta música
00:00 / 00:00
Automático

Cifra Club Pro

Aproveite o Cifra Club com benefícios exclusivos e sem anúncios
Cifra Club Pro
Aproveite o Cifra Club com benefícios exclusivos e sem anúncios
OK