Cifra Club

Aprenda

O Descobrimento do Brasil

Legião Urbana

Tab de baixo: Principal
G|------------------------------|
D|------------------------------|
A|---------------1-1-1-1-4-4-4-4|
E|2-2-2-2-2-2-2-2---------------|
                                     
Ela me disse que trabalha no correio
G|------------------------------|
D|------------------------------|
A|---------------3-3-3-3-6-6-6-6|
E|4-4-4-4-4-4-4-4---------------| 
                                   
E que namora um menino eletricista 
G|------------------------------|
D|------------------------------|
A|---------------3-3-3-3-1-1-1-1|
E|4-4-4-4-4-4-4-4---------------|
                                      
A gente quer um lugar pra gente
G|------------------------------|
D|------------------------------|
A|---------------1-1-1-1-4-4-4-4|
E|2-2-2-2-2-2-2-2---------------|
Composição de Marcelo Bonfá / Renato Russo
Colaboração e revisão:
  • Rodrigo Vidal
29 exibições

0 comentários

Mostrar mais comentários

Conseguiu tocar?

0 Tocaram 0 Ainda não

Grave um vídeo tocando O Descobrimento do Brasil e mande pra gente!

00:00 / 00:00
outros vídeos desta música
repetir qualidade Automático
Outros vídeos desta música
00:00 / 00:00
Automático

Cifra Club Pro

Aproveite o Cifra Club com benefícios exclusivos e sem anúncios
Cifra Club Pro
Aproveite o Cifra Club com benefícios exclusivos e sem anúncios
OK