Cifra Club

Aprenda

O Descobrimento do Brasil

Legião Urbana

Tab de baixo: Principal
G|------------------------------------------------------------|
D|------------------------------------------------------------|
A|---------------1-1-1-1-4-4-4-4-----------------------6-6-6-6|
E|2-2-2-2-2-2-2-2---------------2-2-2-2-2-2-2-2-4-4-4-4-------|

G|------------------------------------------------------------|
D|------------------------------------------------------------|
A|---------------1-1-1-1-4-4-4-4-----------------------6-6-6-6|
E|2-2-2-2-2-2-2-2---------------2-2-2-2-2-2-2-2-4-4-4-4-------|

G|------------------------------------------------------------|
D|------------------------------------------------------------|
A|---------------3-3-3-3-6-6-6-6---------------1-1-1-1--------|
E|4-4-4-4-4-4-4-4---------------4-4-4-4-4-4-4-4--------2-2-2-2|

G|------------------------------------------------------------|
D|------------------------------------------------------------|
A|---------------1-1-1-1-4-4-4-4-----------------------6-6-6-6|
E|2-2-2-2-2-2-2-2---------------2-2-2-2-2-2-2-2-4-4-4-4-------|
Composição de Marcelo Bonfá / Renato Russo
Colaboração e revisão:
  • Rodrigo Vidal
53 exibições

0 comentários

Ver todos os comentários

Conseguiu tocar?

0 Tocaram 0 Ainda não

Grave um vídeo tocando O Descobrimento do Brasil e nos envie!

00:00 / 00:00
Outros vídeos desta música
Repetir Qualidade Automático
Outros vídeos desta música
00:00 / 00:00
Automático

Cifra Club Pro

Aproveite o Cifra Club com benefícios exclusivos e sem anúncios
Cifra Club Pro
Aproveite o Cifra Club com benefícios exclusivos e sem anúncios
OK