Cifra Club

Aprenda

Por Enquanto

Legião Urbana

Tab de baixo: Principal
Introdução:
            
G|(7-7)--(7-7)----------------------------------------------|----------------------------------------|
D|----------------7----7--------7----7---------------------------------------------------------------|
A|------------5-5---5-----5-5-----5------------5----5------4----4------5----5------2---2------5----5-|
E|----------------------------------------|3-3----3----2-2---2----3-3----3----0-0---0----3-3---3-----|                                                                                                                                                   
G|-------------------------------------------------------------------------------------------------------|
D|---------------------4----4----------------------------------7-----7-------4-----4---------------------|
A|----7------8-----2-2----2-----------4---4-------5----5---5-5----5-----2-2-----2---------------4-----4--|
E|5-----6-------------------------2-2----2----3-3----3-------------------------------------2-2------2----|
           
G|---------------------------------------------------------------------------------|
D|---------------------------------------------------------------------------------|
A|--------5----5-------4----4-------5----5------2----2------7---7-------7-----7----|
E| --3-3-----3----2-2----2----3-3-----3----0-0----0-----5-5---5-----5-5-----5------|

Verso:  
Mudaram  as Estações... 
               
G|(7-7)--(7-7)--------------------------------------------| --------------------------------------------|
D|--------------------7----7--------7------7--|---------------------------------------------------------|
A|----------------5-5----5-----5-5-----5----|-----5----5------4----4------5----5-----2---2------5----5--|
E|-------------------------------------------|3-3----3----2-2---2----3-3----3----0-0---0----3-3----3----|
                      
G|---------------------------------------------------------------------------------------------------------|
D|----------------------4---4----------------------------------7-----7-------4-----4-----------------------|
A|----7------8-----2-2----2-----------4---4-------5----5---5-5----5-----2-2-----2---------------4-----4----|
E|5-----6-------------------------2-2----2----3-3----3-------------------------------------2-2------2------|
                                                                                                Sempre acaba. 
     
G|---------------------------------------------------------------------------------|
D|---------------------------------------------------------------------------------|
A|--------5----5-------4----4-------5----5------2----2------7---7-------7-----7----|
E| --3-3-----3----2-2----2----3-3-----3----0-0----0-----5-5---5-----5-5-----5------|

Mais nada vai...                                                                               Alguém...
   
G|----------------------------------------------------------------------------|
D|-------7-----7-------6------6-----------------------------------------------|
A|--5-5----5-----4-4-----4--------------5-------5------4-----4-------5-----5--|
E|----------------------------------3-3-----3------2-2----2-----3-3-----3-----|

Só penso em você...                                                                                                                 Está
G|---------------------------------------------------------------------------------------------------------|
D|-------------------------------------------------4-----4---------------------------------------7----7----|
A|-------2----2--------5----5------7------8---2-2-----2----------4---4----------5-----5----5-5------5------|
E|--0-0-----0-----3-3----3-----5-----6----------------------2-2----2------3-3-----3------------------------|

E nem desistir, nem tentar...

G|----------------------------------------------------------------------------------------------------------|
D|--------4-----4---------------------------------------------------------------7-----7-------7----7--------|
A|--2-2-----2-------------4------4------5----5------5----5------7------7---5-5-----5-----5-5----5-----------|
E|--------------------2-2-----2-----3-3---3----3-3----3-----5-5----5----------------------------------------|
 
Solo: repete a tem o fim da música 
  
G|-----------------------------------------------------------------------------------------------------|
D|-----------------------------------------------------------------------------------------------------|
A|----------------------------2-2-2-2-2---0-0-0-0-0-1--------------------------2-2-2-2-2---0-0-0-0-0-1-|
E|--3-3-3-3-3---2-2-2-2-2------------------------------3-3-3-3-3--2-2-2-2-2----------------------------|
Composição de Renato Russo
Colaboração e revisão:
  • Cauê Coutinho
644 exibições

0 comentários

Ver todos os comentários
00:00 / 00:00
outros vídeos desta música
repetir qualidade Automático
Outros vídeos desta música
00:00 / 00:00
Automático

Cifra Club Pro

Aproveite o Cifra Club com benefícios exclusivos e sem anúncios
Cifra Club Pro
Aproveite o Cifra Club com benefícios exclusivos e sem anúncios
OK