Cifra Club

Tédio (Com Um T Bem Grande Pra Você)

Legião Urbana

Tab de baixo: Principal
Introdução:

Vivemos na cidade também o presidente...

G||---------------------------------------------|
D||---------------------------------------------|
A||--7--------7----7----7----7----7----7--------|
E||---------------------------------------------|


                                            
-------------------------------------------|
-------------------------------------------|
--2--------2-------------------------------|
--------------------5--------5----5--------|

Só que eu ñ pretendo ser tão decadente ñ...

---------------------------------------------|
---------------------------------------------|
--7--------7----7----7----7----7----7--------|
---------------------------------------------|


                                            
-------------------------------------------|
-------------------------------------------|
-------------------------------------------|
--3--------3--------5--------5----5--------|


                                                                                
---------------------------------------|---------------------------------------|
---------------------------------------|---------------------------------------|
---------------------------------------|--2--------2----2--------2----2--------|
--3--------3----3--------3----3--------|---------------------------------------|

---------------------------------------|
---------------------------------------|
--2--------2----2--------2----2--------|
---------------------------------------|



Tédio com um T bem Grende pra VC...
|---------------------------------------|
|---------------------------------------|
|---------------------------------------|
|--5--------5----5--------5----5--------|


                                                                                
---------------------------------------|---------------------------------------|
---------------------------------------|---------------------------------------|
---------------------------------------|--5--------5----5--------5----5--------|
--3--------3----3--------3----3--------|---------------------------------------|


                                                                                
---------------------------------------|---------------------------------------|
---------------------------------------|---------------------------------------|
--2--------2----2--------2----2--------|--2--------2----2--------2----2--------|
---------------------------------------|---------------------------------------|
00:00 / 00:00
Outros vídeos desta música
Repetir
Outros vídeos desta música
Composição de Renato Russo
Colaboração e revisão:
  • Lucas Guesser
10.479 exibições

0 comentários

Ver todos os comentários

Conseguiu tocar?

3 Tocaram 0 Ainda não

Grave um vídeo tocando Tédio (Com Um T Bem Grande Pra Você) e nos envie!

Entre para oCifra Club PRO

Tenha acesso a benefícios exclusivos no App e no Site

  • Chega de anúncios

  • Prioridade de compra em lançamentos

  • Mais recursos no app do Afinador

  • Atendimento Prioritário

  • Descontos nos produtos Cifra Club

  • Ajude a produzir mais conteúdo

00:00 / 00:00

Cifra Club Pro

Aproveite o Cifra Club com benefícios exclusivos e sem anúncios
Cifra Club Pro
Aproveite o Cifra Club com benefícios exclusivos e sem anúncios
OK