Notificações Amigos pendentes

      Matanza

      Clube dos Canalhas

      17.413 exibições
      Introdução (guitarra)
      
      G|-----------------------------|-------------|
      D|---------------------------4-|-------------|   (2x)
      A|-------2-2-2-2-----------0---|-------------|
      E|-2-2-2-2-------2-4-2-5-2-----|-2-4-2-5-2-0-|
      
      G|---------------|
      D|---------------|
      A|-------2-2-2-2-|
      E|-2-2-2-2-------|
      
      G|---------------------------------------|
      D|---------------------------------------|
      A|-00000000--22222222--------------------|
      E|--------------------22----------5-4-2-0|
      
      G|---------------------------------------------------------|   
      D|---------------------------------------------------------|      
      A|-00000000-22222222-------------------00000000-22222222---|   
      E|-------------------22222222-22222222---------------------|   
      
      G|-------------------------------------|
      D|-------------------------------------|      
      A|-00000000-22222222-------------------| 
      E|-------------------22222222-22222222-|   
      
      G|------------------------|
      D|------4-----------------|         
      A|-----0------------------|
      E|-2-4-2-5-2--2-4-2-5-2-0-|
      
      G|-------------------------------------|
      D|-------------------------------------|     Espera guitarra tocar riff 1 e 2.
      A|-00000000-22222222-------------------| 
      E|-------------------22222222-22222222-|   
      
      G|---------------------|--------|
      D|-------------------4-|--------|          (2x)
      A|-------22-22------0--|--------|
      E|-22-22-------24252---|-242520-|
      
      G|-------------|
      D|-------------|
      A|-------22-22-|
      E|-22-22-------|
      
      G|---------------------------|
      D|---------------------------|     Guitarra Toca Introdução     
      A|-00000000--22222222--------|
      E|--------------------22-5420|    
      
      G|---------------------|--------|
      D|-------------------4-|--------|          (2x)
      A|-------22-22------0--|--------|
      E|-22-22-------24252---|-242520-|
      
      G|-------------|
      D|-------------|
      A|-------22-22-|
      E|-22-22-------|
      
      G|------------------------------------|
      D|------------------------------------|
      A|-00000000--22222222-----------------|
      E|--------------------22----------5420|
      
      G|---------------------------------------------------------|   
      D|---------------------------------------------------------|      
      A|-00000000-22222222-------------------00000000-22222222---|   
      E|-------------------22222222-22222222---------------------|   
      
      G|-------------------------------------|
      D|-------------------------------------|      
      A|-00000000-22222222-------------------| 
      E|-------------------22222222-22222222-|   
      
      G|----------------|
      D|-------4--------|         
      A|------0---------|
      E|-24252---242520-|
      
      G|-------------------------------------|
      D|-------------------------------------|     Espera guitarra tocar riff 1 e 2.
      A|-00000000-22222222-------------------| 
      E|-------------------22222222-22222222-|   
      
      G|---------------------|--------|
      D|-------------------4-|--------|          (2x)
      A|-------22-22------0--|--------|
      E|-22-22-------24252---|-242520-|
      
      G|-------------|
      D|-------------|
      A|-------22-22-|
      E|-22-22-------|
      
      G|---------------------------|
      D|---------------------------|       
      A|-00000000--22222222--------|
      E|--------------------2-2-5-4-2-0|    
      
      G|---------------|
      D|------4--------|  (3x)       
      A|-----0---------|
      E|-2-4-2-5-2-0---|
      
      G|-------------|
      D|-------------|          
      A|-------------|
      E|-2-4-2-5-2-0-|
      
      G|--------------|
      D|--------------|
      A|-------2------|
      E|-2-2--------2-|

      Comentários 0

      140 .
      140 cancelar
      0:00 / 0:00

      Capítulos

        1 versão de violão dificuldade exibições contribuição e correção
        1 versão de guitarra dificuldade exibições contribuição e correção
        1 versão de cavaco dificuldade exibições contribuição e correção
        1 versão de teclado dificuldade exibições contribuição e correção
        1 versão de baixo exibições contribuição e correção
        play/pausefechar subir/descer velocidade
        6ª corda E5ª corda A4ª corda D3ª corda G2ª corda B1ª corda E
          acordes
          publicidade
          fechar
          ok