Notificações Amigos pendentes

      Matanza

      O Caminho da Escada da Corda

      16.430 exibições
      Tom: G
        |RIFF 1#               |Riff do baixo
      
      e|----------------------|----------------------|
      B|----------------------|----------------------|
      G|-----------------0----|----------------------|
      D|-------2--------------|----------------------|
      A|------------2---------|----------------------|
      E|--0-------------------|--7----5----3----0----|
      
      
      {Riff 2#]            
      
      e|--------------------------|--------------------------|-----||
      B|--------------------------|--------------------------|-----||
      G|--------------------------|--------------------------|-----||
      D|--1--1--1--1--1--1--1--1--|--4--4--4--4--4--4--4--4--|-----||
      A|--2--2--2--2--2--2--2--2--|--2--2--2--2--2--2--2--2--|-----||
      E|--------------------------|--------------------------|-----||
      
      
       Asus2         
      |--0-----|
      |--0-----|
      |--2-----|
      |--2-----|
      |--0-----|
      |--------| (pode usar A maior se preferir ^^)
      
      =====================================================================
      
      [intro: Riff 1#, RIff 2# e Riff 1#]
      
      Em    [As partes em Em são em palm muted]
      Eu fui condenado a ser enforcado
      Hoje ao meio dia pra sua alegria
      [Riff 2#]
      Não me deram nada, nem mesmo um cigarro
      Em
      Me jogaram pedra, mas passou de lado
      
      Veio muita gente pra me ver morrendo
      Bem na minha frente, para o reverendo
      {Riff 2#]
      Oportunidade que eu diria rara
      Em
      De chamar seu nome e cuspir na cara
      
      Asus2
      Todos ao diabo, antes que eu me esqueça
      Em
      Corda no pescoço, preço na cabeça
      B
      E não importa o que aconteça
      [C B Asus2]
      Eu volto do inferno pra pegar todos vocês
      
      [Repete intro]
      
      Em
      Não sinto remorso, muito menos medo
      Não contei os mortos, não guardei segredo
      {Riff 2#]
      Não existe nada em que eu acredite
      Em
      A minha verdade era a dinamite
      
      Mesmo procurado por assassinato
      Fui comer a puta, fui capturado
      {Riff 2#]
      Eis me aqui agora, com o destino à frente
      Em
      E uma bola de ferro presa na corrente.
      
      Asus2
      Todos ao diabo, antes que eu me esqueça
      Em
      Corda no pescoço, preço na cabeça
      B
      E não importa o que aconteça
      [C B Asus2]
      Eu volto do inferno pra pegar todos vocês
      
      RIff 1# varias vezes
      Riff 2#
      Pode terminar com o "Riff do baixo"
      
      
      "Divirtan-se!" [Allex]

      Comentários 1

      140 .
      140 cancelar

      conseguiu tocar?

      covers

      Grave um vídeo tocando O Caminho da Escada da Corda e mande pra gente!

      Ex.: http://www.youtube.com/watch?v=0IvSvIwGdwk
      ver covers de outras músicas »
      0:00 / 0:00

      Capítulos

        2 versões de violão dificuldade exibições contribuição e correção
        2 versões de guitarra dificuldade exibições contribuição e correção
        2 versões de cavaco dificuldade exibições contribuição e correção
        2 versões de teclado dificuldade exibições contribuição e correção
        play/pausefechar subir/descer velocidade
        6ª corda E5ª corda A4ª corda D3ª corda G2ª corda B1ª corda E
          acordes
          publicidade
          fechar
          ok