Enviar cifraEntrar

Carpe Diem Baby

Metallica

Tab de baixo: Principal
exibições 4.236
Gb:--------------------------------------------------------------------
Db:--------------------------------------------------------------------
Ab:----5----5---5-----7------5----5------------------------5---5---5---
Eb:-/7---5----3---0-0-0--0/7---5----3-0-b(3)--0-0-0--0-0/7---5---3---0-



Gb:-------------------------------------------------:
Db:-------------------------------------------------:
Ab:-----7-----5----5------------------------------7-:
Eb:-0-0-0--/7---5----3-0-b(3)--0-0-0---0----0-------: 
                                              



Gb:--------------------------------------------------------------------
Db:----------------------7-------------------------------------------7-
Ab:-5h7------5h7------5-----5--5-7-8--3--3--3---5h7------5h7------5----
Eb:----0-0-0----0-0-0------------------------------0-0-0----0-0-0------



Gb:----------------------------------------------------------------:
Db:-----------------------------------------7----------------------:
Ab:-5--5-7-8--3--3--3---5h7------5h7------5----5-5------3-3-3-3-3/-:
Eb:------------------------0-0-0----0-0-0----------0-1-------------:E.V




Gb:--------------------------------------------------------------------
Db:--------------------------------------------------------------------
Ab:--------------------------------------------------------------------
Eb:-7-7--7-6-6--6-3-3--3-2-2-2--0--0--0--0--0--0--0--0--0--7-7--7-6-6--



Gb:--------------------------------------------------------------------
Db:--------------------------------------------7--7-------5-5----------
Ab:------------------------------5/7-7-7-7-7-7-5--5-5-7-8-3-3-3-3-3-3-3
Eb:-6-3-3--3-2-0-2h3-0--0--0--0--0---0-0-0-0-0-------------------------



Gb:---------------------------------:
Db:---------------------------------:
Ab:-7-7-----7-7-----7-7-----7-7-----:
Eb:-0-0-0-0-0-0-0-0-0-0-0-0-0-0-0-0-: 



Gb:--------------------------------------------------------------
Db:--------------------------------------------------------------
Ab:------------------------------7-7-----7-7-----7-7-----7-7-----
Eb:-0--0-0-2--2-2/5-5--5-5-5-5-5-0-0-0-0-0-0-0-0-0-0-0-0-0-0-0-0-  



	
Gb:------------------------------------------------------------:
Db:------------------------------------------------------------:
Ab:------------------------------------------------------------: 
Eb:-0--0-0-2--2-2/5-5-5-5-5-5-5-5-5--5-----5----5--5-5-5-5---7-: 




Gb:-------------------------------------------------------------------
Db:-------------------------------------------------------------------
Ab:---------------7----5---5---5------7------5---5--------------------
Eb:-8--8-8-8\0--0-0/7----5---3----0-0-0--0/7---5---3-0-b(3)-0-0-0-0-0/




Gb:----------------------------------------------------------:
Db:----------------------------------------------------------:
Ab:-----5---5---5------7------5---5------------------------7-: 
Eb:-/7----5---3----0-0-0--0/7---5---3-0-b(3)-0-0-0--0---0----: 




Gb:-------------------------------------------------------------------
Db:-------------------------------------------------------------------
Ab:-------------------------------------7--7-------7--7-------7--7----
Eb:-8---8--8--8-8-8-8-8-8-8-8-8-8-8-7-5-0--0-------0--0-------0--0----



Gb:------------------ -------------------------------------------------
Db:------------------ -------------------------------------------------
Ab:-7--7--7-6-5------ -------/7----------/7---------/7----5------3-----
Eb:-0--0-------7-6-5- -0--0-0---0-0---0-0---0-0--0-0--0-0---5--5---3-2-



Gb:----------------------------------------------:
Db:----------------------------------------------:
Ab:------/7--------/7--------/7----5-----3-------:
Eb:-0-3-0--0-0--0-0--0-0--0-0--0-0---5-5---3-2-0-: 



Gb:----------------------------------------------------
Db:----------------------------------------------------
Ab:--------/7----------/7----------/7-----5------3-----
Eb:-0-3-0-0---0-0---0-0---0-0---0-0---0-0---5--5---3-2-   x4



Gb:---------------------------------------------------------
Db:---------------------------------------------------------
Ab:-------------------------------------------5-----3-3-----
Eb:-7--7-7-8--7-7-0--0-0-8--7-7-0--0-0-8--7-7---5-------3-2-   x2



Gb:------------------------------------------- ------------------------
Db:------------------------------------------- ------------------------
Ab:------10---------11---------10---------7\0- ------10p7-10p7---------
Eb:-0--0-------0--0-------0--0-------0--0---0- ----------------(0)-----



Gb:--------------------------------------------------------------------
Db:---------------------------12/14-14-14\-----------------------------
Ab:---5/7-7-10/12-12-12/14-14----------------7-------5----5---5--------
Eb:---------------------------------------0--0---/7----5----3----0--0--




Gb:--------------------------------------------------------------------
Db:--------------------------------------------------------------------
Ab:-7-------5----5-------------------------5----5---5---------7--------
Eb:-0--0/7----5----3-0-b(3)--0-0-0--0-0/7----5----3----0--0-0-0---/7---



Gb:------------------------------------:
Db:------------------------------------:
Ab:-5----5---------------------------7-:
Eb:---5----3-0-b(3)--0-0-0--0----0-----: 




Gb:--------------------------------------------------------------------
Db:------------------7-------------------------------------------------
Ab:------------------5---5---5-7-8--3--3-3-3-3--5h7-----5p2-5/7--------
Eb:-0----------------------------------------------0-0----------0-0-00-



Gb:--------------------------------------------------------------------
Db:-7-------------------------------------------------7----------------
Ab:-5---5---5-7-8--3--3-3-3-3--5h7-----5p2-5/7--------5--5-5-----3-3-3/
Eb:-------------------------------0-0----------0-0-00--------0-1-------




Gb:--------------------------------------------------------------
Db:--------------------------------------------------------------
Ab:------------------------------7-7-----7-7-----7-7-----7-7-----
Eb:-0--0-0-2--2-2/5-5--5-5-5-5-5-0-0-0-0-0-0-0-0-0-0-0-0-0-0-0-0-  x2 




Gb:--------------------------------------------------------------------
Db:-------------------------------------------------------------5--5---
Ab:-------------------------------------------------------------3--3---
Eb:-0--0-0-2--2-2/5-5-5-5-5-5-5-5-5--5-----5--3h4-5-5-5-5-5-5-7-------- 




Gb:--------------------------- ----------------------------------------
Db:-----5--------------------- ----------------------------------------
Ab:-3-3-3-3-3-3-3-3-3-3-3-3-2- -----------3----------------------------
Eb:--------------------------- -5--5--5-5---5-5-5-0-3-1--1-1-1-1-1-1-1-




Gb:------------- ------------------------------------------------------
Db:------------- ------------------------------------------------------
Ab:------------- -------7-------5---5---5--------7------5---5----------
Eb:-1-1-1/3-3-3- -0--0--0---/7----5---3---0--0-0-0--/7----5---3-0-b(3)-




Gb:--------------------------------------------------------------------
Db:--------------------------------------------------------------------
Ab:--------------5----5---5---------7-------5---5----------------------
Eb:-0-0-0--0-0/7---5----3----0--0-0-0---/7----5---3-0-7-7-7-6-6--6-3-3-




Gb:-----------------------------------------------------:
Db:-----------------------------------------------------:
Ab:-----------7-7-----7-7-----7-7-----7-7---------7-----:
Eb:-3-2-2--2--0-0-0-0-0-0-0-0-0-0-0-0-0-0-0-0-0-0-0-0-0-:
  • 1
  • 2
  • 3
  • 4
  • 5
  • 6
  • 7
  • 8
  • 9
  • 10
  • 11
  • 12
    Composição: James Hetfield / Kirk Hammett / Lars UlrichColaboração e revisão:
    • Hellektra

    0 comentários

      mostrar mais comentários

      Conseguiu tocar?

      0tocaram0ainda não

      Grave um vídeo tocando Carpe Diem Baby e mande pra gente!

      00:00 / 00:00
      outros vídeos desta música
      repetirqualidadeautomática
      • automática
      Outro vídeos desta música
        00:00 / 00:00
        automática
        • automática
        Acordes para:violão e guitarra
        dificuldadeexibiçõescontribuições
        2 versões de Tab de baixoexibiçõescontribuições
        1 versão de Tab de bateriaexibiçõescontribuições
        3 versões de Guitar Proformatodownloadscontribuição
        fecharplay/pause subir/descer velocidade
        fechar
        OK