Cifra Club

The Eistein Crew

Millencolin

Cifra: Principal (violão e guitarra)
tom: F
Chords:
   C  Eb Bb F1 F2
e-----------------
B-----------------
G-----8-----9-----
D--9--8--8--9--3--
A--9--6--8--7--3--
E--7-----6-----1--

Riff 1:
C / Eb / Bb / F 

Riff 2:
Bb / F2 / C / C / Bb / F2

Riff 3:
C F1 / Eb Bb

Riff 4:
C / Bb / C F Bb C 

Riff 5:
C / Eight times

Riff 6:
C / F2 / Bb / F1

Riff 7:
e-------------------------------------------------------------------------|
B-------------------------------------------------------------------------|
G----------10----------------------10-------------------------------------|
D-10-12-13----13-13-12-10-10-12-13----13-13-12-13-12-13-12----------------|
A-------------------------------------------------------------------------|
E-------------------------------------------------------------------------|

Riff 8:
e--------------------------------------------------------------------------
B--------------------------------------------------------------------------
G--------------------------------------------------------------------------
D--------------------------------------------------------------------------
A--------------------------------------------------------------------------
E-8-8-8-10-10-10-11-11-11-8-8-8-10-10-10-11-11-11-8-8-8-10-10-10-11-11-11--

---------------------------|
---------------------------|
---------------------------|
---------------------------|
--8-8-8--------------------|
--------11-11-11-10-10-10--|

Order to Play the parts:
Riff 1 --- Riff 7
Riff 2
Riff 3
Riff 1 --- Riff 7
Riff 2
Riff 4
Riff 3
Riff 5
Riff 6
Riff 4
Riff 3
00:00 / 00:00
Outros vídeos desta música
Repetir
Outros vídeos desta música
Composição de Millencolin / Nikola Sarcevic
1.935 exibições
    • ½ Tom
    • A
    • Bb
    • B
    • C
    • Db
    • D
    • Eb
    • E
    • F
    • F#
    • G
    • Ab
  • Adicionar à lista

    0 comentários

    Ver todos os comentários

    Conseguiu tocar?

    0 Tocaram 0 Ainda não

    Grave um vídeo tocando The Eistein Crew e nos envie!

    Entre para oCifra Club PRO

    Tenha acesso a benefícios exclusivos no App e no Site

    • Chega de anúncios

    • Prioridade de compra em lançamentos

    • Mais recursos no app do Afinador

    • Atendimento Prioritário

    • Descontos nos produtos Cifra Club

    • Ajude a produzir mais conteúdo

    00:00 / 00:00

    Cifra Club Pro

    Aproveite o Cifra Club com benefícios exclusivos e sem anúncios
    Cifra Club Pro
    Aproveite o Cifra Club com benefícios exclusivos e sem anúncios
    OK