Cifra Club

Seeing Double At The Triple Rock

Nofx

Cifra: Principal (violão e guitarra)
tom: C
INTRO - Hefe                                             x3
E|--------------------------------------------------------|
B|--------------------------------------------------------|
G|-----------------------------------------------7-7------|
D|------5-------5------5---7p5-X------5-------5--7-7--7-7-|
A|--7-7---7-5-7---7--7---7--------7-7---7-5-7----5-5--7-7-|
E|----------------------------------------------------5-5-|

E|---------------------------------------------------------|
B|---------------------------------------------------------|
G|-----------------------------------------------7-7-7-----|
D|------5-------5------5---7p5-X------5-------5--7-7-7-7-5-|
A|--7-7---7-5-7---7--7---7--------7-7---7-5-7----5-5-5-7-5-|
E|-----------------------------------------------------5-3-|

  INTRO - Melvin                                           x1
E|---------------------------------------------------------|
B|---------------------------------------------------------|
G|-----------------------------------------------7-7-7-----|
D|-----------------------------------------------7-7-7-7-5-|
A|-----------------------------------------------5-5-5-7-5-|
E|-----------------------------------------------------5-3-|

  After it drops - Hefe
E|--------------------------------------------------------|
B|--------------------------------------------------------|
G|-----------------------------------------------7-7------|
D|--9---5-------5-9----5---7p5-X--9---5-------5--7-7--7-7-|
A|--7-7---7-5-7---6--7---7--------5-7---7-5-7----5-5--7-7-|
E|----------------------------------------------------5-5-|
                                 
E|--------------------------------------------------------|
B|--------------------------------------------------------|
G|-----------------------------------------------7-7------|
D|--9---5-------5-9----5---7p5-X--9---5-------5--7-7--9-9-|
A|--7-7---7-5-7---6--7---7--------5-7---7-5-7----5-5--6-6-|
E|--------------------------------------------------------|

E|--------------------------------------------------------|
B|--------------------------------------------------------|
G|-----------------------------------------------7-7------|
D|--9---5-------5-9----5---7p5-X--9---5-------5--7-7--7-7-|
A|--7-7---7-5-7---6--7---7--------5-7---7-5-7----5-5--7-7-|
E|----------------------------------------------------5-5-|

E|---------------------------------------------------------|
B|---------------------------------------------------------|
G|-----------------------------------------------7-7-7-----|
D|--9---5-------5-9----5---7p5-X--9---5-------5--7-7-7-7-5-|
A|--7-7---7-5-7---6--7---7--------5-7---7-5-7----5-5-5-7-5-|
E|-----------------------------------------------------5-3-|

  After it drops - Melvin
E|--------------------------------------------------------|
B|--------------------------------------------------------|
G|-----------------------------------------------7-7------|
D|------5-------5------5---7p5-X------5-------5--7-7--7-7-|
A|--7-7---7-5-7---6--7---7--------5-7---7-5-7----5-5--7-7-|
E|----------------------------------------------------5-5-|
                                 
E|--------------------------------------------------------|
B|--------------------------------------------------------|
G|-----------------------------------------------7-7------|
D|------5-------5------5---7p5-X------5-------5--7-7--9-9-|
A|--7-7---7-5-7---6--7---7--------5-7---7-5-7----5-5--6-6-|
E|--------------------------------------------------------|

E|--------------------------------------------------------|
B|--------------------------------------------------------|
G|-----------------------------------------------7-7------|
D|------5-------5------5---7p5-X------5-------5--7-7--7-7-|
A|--7-7---7-5-7---6--7---7--------5-7---7-5-7----5-5--7-7-|
E|----------------------------------------------------5-5-|

E|---------------------------------------------------------|
B|---------------------------------------------------------|
G|-----------------------------------------------7-7-7-----|
D|------5-------5------5---7p5-X------5-------5--7-7-7-7-5-|
A|--7-7---7-5-7---6--7---7--------5-7---7-5-7----5-5-5-7-5-|
E|-----------------------------------------------------5-3-|

  VERSE - Both   * = x8   % = x4   With palm muting
E|--------------------------------------|
B|---------*----------------*-----------|
G|---*--*-7---%-------*--*-7--9-x-9-x-9-|
D|--2--5--7--7-------2--5--7--9-x-9-x-9-|
A|--2--5--5--7-------2--5--5--7-x-7-x-7-|
E|--0--3-----5--3b-0-0--3---------------|Pick slide

E|-------------------------------|
B|---------*----------------*--*-|
G|---*--*-7---%-------*--*-7--9--|
D|--2--5--7--7-------2--5--7--9--|
A|--2--5--5--7-------2--5--5--7--|
E|--0--3-----5--3b-0-0--3--------|

Chorus
E|-----------------------------|
B|---*--*--*--*----------------|
G|--5--7--8--9---*--*--*--%----|
D|--5--7--9--9--7--7--7--7-----|
A|--3--5--6--7--7--7--7--7-----|
E|--------------5--5--5--5--3b-|

And then... Melvin
E|--------------------------------------------------------|
B|--------------------------------------------------------|
G|-----------------------------------------------7-7------|
D|------5-------5------5---7p5-X------5-------5--7-7--7-7-|
A|--7-7---7-5-7---6--7---7--------5-7---7-5-7----5-5--7-7-|
E|----------------------------------------------------5-5-|

E|---------------------------------------------------------|
B|---------------------------------------------------------|
G|-----------------------------------------------7-7-7-----|
D|------5-------5------5---7p5-X------5-------5--7-7-7-7-5-|
A|--7-7---7-5-7---6--7---7--------5-7---7-5-7----5-5-5-7-5-|
E|-----------------------------------------------------5-3-|

And hefe...
E|--------------------------------------------------------|
B|--------------------------------------------------------|
G|-----------------------------------------------7-7------|
D|--9---5-------5-9----5---7p5-X--9---5-------5--7-7--7-7-|
A|--7-7---7-5-7---6--7---7--------5-7---7-5-7----5-5--7-7-|
E|----------------------------------------------------5-5-|

E|---------------------------------------------------------|
B|---------------------------------------------------------|
G|-----------------------------------------------7-7-7-----|
D|--9---5-------5-9----5---7p5-X--9---5-------5--7-7-7-7-5-|
A|--7-7---7-5-7---6--7---7--------5-7---7-5-7----5-5-5-7-5-|
E|-----------------------------------------------------5-3-|

  VERSE - Both   * = x8   % = x4   With palm muting
E|--------------------------------------|
B|---------*----------------*-----------|
G|---*--*-7---%-------*--*-7--9-x-9-x-9-|
D|--2--5--7--7-------2--5--7--9-x-9-x-9-|
A|--2--5--5--7-------2--5--5--7-x-7-x-7-|
E|--0--3-----5--3b-0-0--3---------------|Pick slide

E|-------------------------------|
B|---------*----------------*--*-|
G|---*--*-7---%-------*--*-7--9--|
D|--2--5--7--7-------2--5--7--9--|
A|--2--5--5--7-------2--5--5--7--|
E|--0--3-----5--3b-0-0--3--------|

Chorus - Both
E|---------------------------|
B|---*--*--*--*--------------|
G|--5--7--8--9---*--*--*--*--|
D|--5--7--9--9--7--7--7--7---|
A|--3--5--6--7--7--7--7--7---|
E|--------------5--5--5--5---|

E|--------------|--0---0---3---0---|--0*-0*-----|
B|---*--------*-|--1---1---3---0---|--1--1------|
G|--5---*--*-9--|--2---0---0---0---|--2--0------|
D|--5--5--9--9--|--2---2---0---2---|--2--2------|
A|--3--5--6--7--|--0---3---2---2---|--0--3------|
E|-----3--------|----------3---0---|--------3b--|
                  \      2x      /

Outro ? Melvin
E|--------------------------------------------------------|
B|--------------------------------------------------------|
G|-----------------------------------------------7-7------|
D|------5-------5------5---7p5-X------5-------5--7-7--7-7-|
A|--7-7---7-5-7---6--7---7--------5-7---7-5-7----5-5--7-7-|
E|----------------------------------------------------5-5-|

E|-----------------------------------------------------------|
B|-----------------------------------------------------------|
G|-----------------------------------------------7-7-7-------|
D|------5-------5------5---7p5-X------5-------5--7-7-7-7-5-2-|
A|--7-7---7-5-7---6--7---7--------5-7---7-5-7----5-5-5-7-5-2-|
E|-----------------------------------------------------5-3-0-|
                                                   Let ring/        
Outro ? Hefe

And hefe...
E|--------------------------------------------------------|
B|--------------------------------------------------------|
G|-----------------------------------------------7-7------|
D|--9---5-------5-9----5---7p5-X--9---5-------5--7-7--7-7-|
A|--7-7---7-5-7---6--7---7--------5-7---7-5-7----5-5--7-7-|
E|----------------------------------------------------5-5-|

E|-----------------------------------------------------------|
B|-----------------------------------------------------------|
G|-----------------------------------------------7-7-7-------|
D|--9---5-------5-9----5---7p5-X--9---5-------5--7-7-7-7-5-2-|
A|--7-7---7-5-7---6--7---7--------5-7---7-5-7----5-5-5-7-5-2-|
E|-----------------------------------------------------5-3-0-|
                                                   Let ring/
Aproveitem!!!!
00:00 / 00:00
Outros vídeos desta música
Repetir
Outros vídeos desta música
Composição de Fat Mike
Colaboração e revisão:
  • Valmir Filho
10.975 exibições
    • ½ Tom
    • A
    • Bb
    • B
    • C
    • Db
    • D
    • Eb
    • E
    • F
    • F#
    • G
    • Ab
  • Adicionar à lista

    0 comentários

    Ver todos os comentários

    Conseguiu tocar?

    0 Tocaram 0 Ainda não

    Grave um vídeo tocando Seeing Double At The Triple Rock e nos envie!

    00:00 / 00:00

    Cifra Club Pro

    Aproveite o Cifra Club com benefícios exclusivos e sem anúncios
    Cifra Club Pro
    Aproveite o Cifra Club com benefícios exclusivos e sem anúncios
    OK