Cifra Club

O Calibre

Os Paralamas do Sucesso

Cifra: Principal
exibições 369.668
Tom: A
(refrão)

*apenas no início da música, tocar:


 E5               D5
-----------------------------------------
-5---5------------3---3------------------
-4---4------------2---2---0--------------
-2---2---2--------0-------0--------------
-2-------2-------------------------------
-0-------0-------------------------------


 A/C#         D5       E5
-----------------------------------------
--------------3-3------5-----------------
-----2---2----2-2-x-x--4-----2---0-------
-----2---2----0-0-x-x--2-----2---0-------
-2/4---4---4-----------2-2-2---2---------
-----------------------0-0-0---0---------



* e depois continuar assim:


 E5               D5
-----------------------------------------
-5-5-5-5-5-5-5----3-3--------------------
-4-4-4-4-4-4-4----2-2------7---7h9-7-----
-2-2-2-2-2-2-2----0-0------7---7h9-7-----
-2---2---2---2---------7/9---9-------9\--
-0---0---0---0---------------------------


 A/C#         D5       E5
-----------------------------------------
--------------3-3------5-----------------
-----2---2----2-2-x-x--4---2---0---2---0-
-----2---2----0-0-x-x--2---2---0---2---0-
-2/4---4---4-----------2-2---2---2---2---
-----------------------0-0---0---0---0---


    E5
Eu vivo sem saber até quando ainda estou vivo
D5
  Sem saber o calibre do perigo
        A/C# D5                E5
Eu não sei      d'aonde vem o tiro

    E5
Eu vivo sem saber até quando ainda estou vivo
D5
  Sem saber o calibre do perigo
        A/C# D5                E5
Eu não sei      d'aonde vem o tiro

(riff principal e estrofes)

riff principal


---------------------------------------------------
---------------------------------------------------
---------------------------------------------------
-----0h2---2p0-----0---------0h2-----2p0-----0-----
---------2-----0h2---------------0h2-----0h2-------
-0-0-----------------3b¼-0-0-------------------3b¼-


 A               A7   A              A7
-----------------------------------------
-----------2-----2--------------2----2---
-2-2-2-----2-----0----2-2-2-----2----0---
-2-2-2--2--2--2--2-x--2-2-2--2--2--2-2-x-
-0-0-0--0-----0----x--0-0-0--0-----0---x-
-----------------------------------------



Por que caminhos você vai e volta?
Aonde você nunca vai?
Em que esquinas você nunca pára?
A que horas você nunca sai?
           A                      A7
Há quanto tempo você sente medo?
          A                     A7
Quantos amigos você já perdeu?

*volta o riff principal

Entrincheirado, vivendo em segredo
E ainda diz que não é problema seu

E a vida já não é mais vida
No caos ninguém é cidadão
As promessas foram esquecidas
Não há estado, não há mais nação
    A                         A7
Perdido em números de guerra
   A                     A7
Rezando por dias de paz

*volta o riff principal

Não vê que a sua vida aqui se encerra
Com uma nota curta nos jornais

*repetir as partes

*repetir o riff 8x, e de última vez tocar:

                             E5
---------------------------------------------------
-----------------------------5---------------------
-----------------------------4---------------------
-----0h2-----2p0-----0-------2---------------------
---------0h2-----0h2---------2---------------------
-0-0-------------------3b¼-0-0---------------------



Eu vivo sem saber
Até quando ainda estou vivo

E5
Acordes para:
    Composição: Herbert ViannaColaboração e revisão:
    • Gustavo Cunha
    • Thiago Holanda
    • Silvio Pereira

    0 comentários

      mostrar mais comentários

      Conseguiu tocar?

      10tocaram0ainda não

      Grave um vídeo tocando O Calibre e mande pra gente!

      00:00 / 00:00
      outros vídeos desta música
      repetirqualidadeautomática
      Outro vídeos desta música
        00:00 / 00:00
        automática
        Capítulos
        • Início
        • Tocando a música
        • Acordes do Refrão
        • Tocando Refrão
        • Ensinando Refrão
        • Acordes do Riff Principal
        • Tocando trecho da música (Riff Principal)
        • Ensinando Riff Principal
        • Ensinando ritmo das Estrofes
        • Ensinando Variação do Riff
        • Encerramento
        OK