Cifra Club

Jeremy

Pearl Jam

Tab de baixo: Principal
exibições 55.217
[Introdução]

Parte 1 
G|---------2---------------2---------------2----|
D|---0h2-------5-----0h2-------5-----0h2--------|
A|-0-----0---0-----0-----0---0-----0-----0---0--|
E|----------------------------------------------|

G|-----------2----------------------------------|
D|-5----0h2------5--5-5-5-5--5-5-5-5------------|
A|----0-----0--0--------------------------------|
E|----------------------------------------------|


[Primeira parte]

At home, drawing pictures of mountain...

Parte 1 de 3 ( 2x )
G|---------2--------------2---------------------|
D|---0h2-------5/---0h2-----------5-------------|
A|-0-----0---0----0-----0---0-5h7---------------|
E|----------------------------------------------|

G|---------2---6---------2----------------------|
D|---0h2-----------0h2------------5-------------|
A|-0-----0---0---0-----0---0--5h7---------------|
E|----------------------------------------------|

Parte 2 de 3
G|----------------------------------------------|
D|---0h2-----------------------------------0h2--|
A|-0-----0--0-0-0-0--0-0-0-0--0-0-0-0-0--0------|
E|----------------------------------------------|

G|----------------------------------------------|
D|---12-----11---------12-----11-----0h2--------|
A|-0----0-0----0-0-0-0----0-0----0-0-----0------|
E|----------------------------------------------|

Parte 3 de 3
G|----------------------------------------------|
D|------------------12----11----0h2---12-----11-|
A|-0-0-0-0--0-0-0-0---0-0---0-0-----0----0-0----|
E|----------------------------------------------|

G|----------------------------------------------|
D|---------12-----11-----0h2--------------------|
A|-0-0-0-0----0-0----0-0-----0------------------|
E|----------------------------------------------|


[Refrão]

Parte 1 
G|----------------------------------------------|
D|-------------------------------0h2------------|
A|-0-8-8--8\--5-7-8--0-0--0-0--0-----0-0--------|
E|----------------------------------------------|

G|----------------------------------------------|
D|----------------------------------------------|
A|-8-8--8\--5-7-3--0-0--0-0---------------------|
E|----------------------------------------------|


[Segunda parte]

Clearly I remember picking on the boy...

Parte 1 de 3 ( 4x )
G|---------2--------------2---------------------|
D|---0h2-------5/---0h2-----------5-------------|
A|-0-----0---0----0-----0---0-5h7---------------|
E|----------------------------------------------|

G|---------2---6---------2----------------------|
D|---0h2-----------0h2------------5-------------|
A|-0-----0---0---0-----0---0--5h7---------------|
E|----------------------------------------------|

Parte 2 de 3
G|----------------------------------------------|
D|---0h2----------------------------------------|
A|-0-----0--0-0-0-0--0-0-0-0--0-0-0-0-0-------0-|
E|----------------------------------------------|

G|----------------------------------------------|
D|-0h2---12-----11---------12-----11-----0h2----|
A|-----0----0-0----0-0-0-0----0-0----0-0-----0--|
E|----------------------------------------------|

Parte 3 de 3
G|----------------------------------------------|
D|------------------12----11----0h2---12-----11-|
A|-0-0-0-0--0-0-0-0---0-0---0-0-----0----0-0----|
E|----------------------------------------------|

G|----------------------------------------------|
D|---------12-----11-----0h2--------------------|
A|-0-0-0-0----0-0----0-0-----0------------------|
E|----------------------------------------------|


[Refrão 2]

Parte 1 
G|----------------------------------------------|
D|-------------------------------0h2------------|
A|-0-8-8--8\--5-7-8--0-0--0-0--0-----0-0--------|
E|----------------------------------------------|

G|----------------------------------------------|
D|-----------------------------0h2---2----------|
A|-8-8--8\--5-7-3--0-0--0-0--0-----0---8-8\-5---|
E|----------------------------------------------|

G|----------------------------------------------|
D|----------------------------------------------|
A|-7-8\--0-0--0-0-------------------------------|
E|----------------------------------------------|


[Terceira parte]

Try to forget this (try to forget this)

Parte 1 de 5( 3x )
G|---------2--------------2---------12----------|
D|---0h2-------5/---0h2-------12h14-------------|
A|-0-----0---0----0-----0---0-------------------|
E|----------------------------------------------|

G|---------2--------------2---------------------|
D|---0h2-------5/---0h2-----------5-------------|
A|-0-----0---0----0-----0---0-5h7---------------|
E|----------------------------------------------|

G|---------2--------------2---------------------|
D|---0h2-------5/---0h2-----------5-------------|
A|-0-----0---0----0-----0---0-5h7---------------|
E|----------------------------------------------|

Parte 2 de 5
G|---------2--------------2---------------------|
D|---0h2-------5/---0h2-------0h2---------------|
A|-0-----0---0----0-----0---0-----0-------------|
E|----------------------------------------------|

Parte 3 de 5
G|-------------------------------12\------------|
D|-------------------------0h2------------------|
A|-8-8\--5-7-8-0--2-3-5--0-----0----5-7-3-------|
E|----------------------------------------------|

G|--------------------14------------------------|
D|--------------0h2------15-15\-----------------|
A|-0--0--0-0--0-----0-----------5-7-8-0-0--0-0--|
E|----------------------------------------------|

G|---------14-12-12\----------------------------|
D|---0h2----------------------------------------|
A|-0-----0------------5-7\--3--0-0--0-0---------|
E|----------------------------------------------|

Parte 4 de 5 (9x )
G|----------------------------------------------|
D|----------------------------------------------|
A|----------------------------------------------|
E|-1-1-1-1--1-1-1-1--3-3-3-3--3-3-3-3-----------|

G|----------------------------------------------|
D|----------------------------------------------|
A|----------------------------------------------|
E|-5-5--5--5-5--5-5--5--5-5---------------------|

Parte 5 de 5 ( Final )
G|----------------------------------------------|
D|----------------------------------------------|
A|----------------------------------------------|
E|-1-1-1-1--1-1-1-1--3-3-3-3--3-3-3-3-----------|

G|----------------------------------------------|
D|----------------------------------------------|
A|----------------------------------------------|
E|-5-5--5--5-5--5-5--5--5-5----5----------------|
Composição: Eddie Vedder / Jeff Ament Colaboração e revisão:
  • Reginaldo Costa
  • Thiago Santos

0 comentários

mostrar mais comentários

Conseguiu tocar?

7 tocaram 0 ainda não

Grave um vídeo tocando Jeremy e mande pra gente!

00:00 / 00:00
outros vídeos desta música
repetir qualidade Automático
Outros vídeos desta música
00:00 / 00:00
Automático
Capítulos
  • Tocando a música
  • Apresentação / Equipamentos
  • TAB - Introdução
  • TAB - Primeira parte - Parte 1 de 3
  • TAB - Primeira parte - Parte 2 de 3
  • TAB - Primeira parte - Parte 3 de 3
  • TAB - Refrão 1
  • TAB - Segunda parte - Parte 1 de 3
  • TAB - Segunda parte - Parte 2 de 3
  • TAB - Segunda parte - Parte 3 de 3
  • TAB - Terceira parte - Parte 1 de 5
  • TAB - Terceira parte - Parte 2 de 5
  • TAB - Terceira parte - Parte 3 de 5
  • TAB - Terceira parte - Parte 4 de 5
  • TAB - Terceira parte - Parte 5 de 5
  • Encerramento
OK