Cifra Club

Aprenda

Guerilla Radio

Rage Against The Machine

Cifra: Versão 2 (violão e guitarra)
tom: D
   Album: The Battle Of L.A. (1999)
   Tabbed By: John Dannar

   Guitar:1 (Distortion)


   E :---------------------|---------------------|---------------------|
   B :---------------------|---------------------|---------------------|
   G :---------------------|---------------------|---------------------|
   D :---------------------|---------------------|---------------------|
   A :-----------------0-2-|-----------------0-2-|-----------------0-2-|
   E :0-2-2-0-2-(2)0-2-----|0-2-2-0-2-(2)0-2-----|0-2-2-0-2-(2)0-2-----|


   E :---------------------|---------------------|---------------------|
   B :---------------------|---------------------|---------------------|
   G :---------------------|---------------------|---------------------|
   D :---------------------|---------------------|---------------------|
   A :-----------------0-2-|-----------------0-2-|-----------------0-2-|
   E :0-2-2-0-2-(2)0-2-----|0-2-2-0-2-(2)0-2-----|0-2-2-0-2-(2)0-2-----|


   E :---------------------|---------------------|---------------------|
   B :---------------------|---------------------|---------------------|
   G :---------------------|---------------------|---------------------|
   D :---------------------|---------------------|---------------------|
   A :-----------------0-2-|-----------------0-2-|-----------------0-2-|
   E :0-2-2-0-2-(2)0-2-----|0-2-2-0-2-(2)0-2-----|0-2-2-0-2-(2)0-2-----|


   E :---------------------|---------------------|---------------------|
   B :---------------------|---------------------|---------------------|
   G :---------------------|---------------------|---------------------|
   D :---------------------|---------------------|---------------------|
   A :-----------------0-2-|-----------------0-2-|-----------------0-2-|
   E :0-2-2-0-2-(2)0-2-----|0-2-2-0-2-(2)0-2-----|0-2-2-0-2-(2)0-2-----|


   E :---------------------|---------------------|---------------------|
   B :---------------------|---------------------|---------------------|
   G :---------------------|---------------------|---------------------|
   D :---------------------|---------------------|---------------------|
   A :-----------------0-2-|-----------------0-2-|-----------------0-2-|
   E :0-2-2-0-2-(2)0-2-----|0-2-2-0-2-(2)0-2-----|0-2-2-0-2-(2)0-2-----|


   E :----------------|-----------------------|-----------------------|
   B :----------------|-----------------------|-----------------------|
   G :2-------1-------|-----------------------|-----------------------|
   D :----------------|-----------------------|-----------------------|
   A :----------------|-----------------------|-----------------------|
   E :--2---0---2---0-|0-2*0-0-2*0-0-2*0-0-2*0|0-2*0-0-2*0-0-2*0-0-2*0|


   E :-----------------------|-----------------------|
   B :-----------------------|-----------------------|
   G :-----------------------|-----------------------|
   D :-----------------------|-----------------------|
   A :-----------------------|-----------------------|
   E :0-2*0-0-2*0-0-2*0-0-2*0|0-2*0-0-2*0-0-2*0-0-2*0|


   E :-----------------------|-----------------------|
   B :-----------------------|-----------------------|
   G :-----------------------|-----------------------|
   D :-----------------------|-----------------------|
   A :-----------------------|-----------------------|
   E :0-2*0-0-2*0-0-2*0-0-2*0|0-2*0-0-2*0-0-2*0-0-2*0|


   E :-----------------------|-----------------------|
   B :-----------------------|-----------------------|
   G :-----------------------|-----------------------|
   D :-----------------------|-----------------------|
   A :-----------------------|-----------------------|
   E :0-2*0-0-2*0-0-2*0-0-2*0|0-2*0-0-2*0-0-2*0-0-2*0|


   E :-----------------------|-----------------------|
   B :-----------------------|-----------------------|
   G :-----------------------|-----------------------|
   D :-----------------------|-----------------------|
   A :-----------------------|-----------------------|
   E :0-2*0-0-2*0-0-2*0-0-2*0|0-2*0-0-2*0-0-2*0-0-2*0|


   E :-----------------------|-----------------------|
   B :-----------------------|-----------------------|
   G :-----------------------|-----------------------|
   D :-----------------------|-----------------------|
   A :-----------------------|-----------------------|
   E :0-2*0-0-2*0-0-2*0-0-2*0|0-2*0-0-2*0-0-2*0-0-2*0|


   E :-----------------------|-----------------------|
   B :-----------------------|-----------------------|
   G :-----------------------|-----------------------|
   D :-----------------------|-----------------------|
   A :-----------------------|-----------------------|
   E :0-2*0-0-2*0-0-2*0-0-2*0|0-2*0-0-2*0-0-2*0-0-2*0|


   E :-----------------------|-----------------|---------------------|
   B :-----------------------|-----------------|---------------------|
   G :-----------------------|-----------------|---------------------|
   D :-----------------------|-----------------|---------------------|
   A :-----------------------|-----------------|-----------------0-2-|
   E :0-2*0-0-2*0-0-2*0-0-2*0|0-2*-------------|0-2-2-0-2-(2)0-2-----|


   E :---------------------|---------------------|---------------------|
   B :---------------------|---------------------|---------------------|
   G :---------------------|---------------------|---------------------|
   D :---------------------|---------------------|---------------------|
   A :-----------------0-2-|-----------------0-2-|-----------------0-2-|
   E :0-2-2-0-2-(2)0-2-----|0-2-2-0-2-(2)0-2-----|0-2-2-0-2-(2)0-2-----|


   E :---------------------|---------------------|---------------------|
   B :---------------------|---------------------|---------------------|
   G :---------------------|---------------------|---------------------|
   D :---------------------|---------------------|---------------------|
   A :-----------------0-2-|-----------------0-2-|-----------------0-2-|
   E :0-2-2-0-2-(2)0-2-----|0-2-2-0-2-(2)0-2-----|0-2-2-0-2-(2)0-2-----|


   E :---------------------|----------------|-----------------------|
   B :---------------------|----------------|-----------------------|
   G :---------------------|2-------1-------|-----------------------|
   D :---------------------|----------------|-----------------------|
   A :-----------------0-2-|----------------|-----------------------|
   E :0-2-2-0-2-(2)0-2-----|--2---0---2---0-|0-2*0-0-2*0-0-2*0-0-2*0|


   E :-----------------------|-----------------------|
   B :-----------------------|-----------------------|
   G :-----------------------|-----------------------|
   D :-----------------------|-----------------------|
   A :-----------------------|-----------------------|
   E :0-2*0-0-2*0-0-2*0-0-2*0|0-2*0-0-2*0-0-2*0-0-2*0|


   E :-----------------------|-----------------------|
   B :-----------------------|-----------------------|
   G :-----------------------|-----------------------|
   D :-----------------------|-----------------------|
   A :-----------------------|-----------------------|
   E :0-2*0-0-2*0-0-2*0-0-2*0|0-2*0-0-2*0-0-2*0-0-2*0|


   E :-----------------------|-----------------------|-----------------|
   B :-----------------------|-----------------------|-----------------|
   G :-----------------------|-----------------------|-----------------|
   D :-----------------------|-----------------------|-----------------|
   A :-----------------------|-----------------------|-----------------|
   E :0-2*0-0-2*0-0-2*0-0-2*0|0-2*0-0-2*0-0-2*0-0-2*0|0-2*-------------|


   E :---------------------|---------------------|---------------------|
   B :---------------------|---------------------|---------------------|
   G :---------------------|---------------------|---------------------|
   D :---------------------|---------------------|---------------------|
   A :-----------------0-2-|-----------------0-2-|-----------------0-2-|
   E :0-2-2-0-2-(2)0-2-----|0-2-2-0-2-(2)0-2-----|0-2-2-0-2-(2)0-2-----|


   E :---------------------|---------------------|---------------------|
   B :---------------------|---------------------|---------------------|
   G :---------------------|---------------------|---------------------|
   D :---------------------|---------------------|---------------------|
   A :-----------------0-2-|-----------------0-2-|-----------------0-2-|
   E :0-2-2-0-2-(2)0-2-----|0-2-2-0-2-(2)0-2-----|0-2-2-0-2-(2)0-2-----|


   E :---------------------|---------------------|----------------|
   B :---------------------|---------------------|----------------|
   G :---------------------|---------------------|2-------1-------|
   D :---------------------|---------------------|----------------|
   A :-----------------0-2-|-----------------0-2-|----------------|
   E :0-2-2-0-2-(2)0-2-----|0-2-2-0-2-(2)0-2-----|--2---0---2---0-|


   E :---------------------|---------------------|---------------------|
   B :---------------------|---------------------|---------------------|
   G :---------------------|---------------------|---------------------|
   D :---------------------|---------------------|---------------------|
   A :-----------------0-2-|-----------------0-2-|-----------------0-2-|
   E :0-2-2-0-2-(2)0-2-----|0-2-2-0-2-(2)0-2-----|0-2-2-0-2-(2)0-2-----|


   E :---------------------|---------------------|---------------------|
   B :---------------------|---------------------|---------------------|
   G :---------------------|---------------------|---------------------|
   D :---------------------|---------------------|---------------------|
   A :-----------------0-2-|-----------------0-2-|-----------------0-2-|
   E :0-2-2-0-2-(2)0-2-----|0-2-2-0-2-(2)0-2-----|0-2-2-0-2-(2)0-2-----|


   E :---------------------|---------------------|-------------------|
   B :---------------------|---------------------|-------------------|
   G :---------------------|---------------------|----------------2--|
   D :---------------------|---------------------|4---2-4-(4)-2-4----|
   A :-----------------0-2-|-----------------0-2-|-------------------|
   E :0-2-2-0-2-(2)0-2-----|0-2-2-0-2-(2)0-2-----|-------------------|


   E :-------------------|-------------------|------------------|
   B :-------------------|-------------------|------------------|
   G :----------------2--|----------------2--|4-----------------|
   D :4---2-4-(4)-2-4----|4---2-4-(4)-2-4----|------------------|
   A :-------------------|-------------------|----------------0-|
   E :-------------------|-------------------|--0--0---0-3-13---|


   E :------------------------|-------------------------|
   B :------------------------|-------------------------|
   G :4---2-4-(4)-4-(4)(4)2---|4---2-4-(4)--4-(4)(4)2---|
   D :4---2-4-(4)-----------4-|4---2-4-(4)2-----------4-|
   A :------------------------|-------------------------|
   E :------------------------|-------------------------|


   E :-------------------------|7---6---4---3-(3)-|*---------------|
   B :-------------------------|7---6---4---3-(3)-|*---------------|
   G :4---2-4-4---4-(4)(4)2-4-2|7---6---4---3-(3)-|*---------------|
   D :4---2-4-4-2--------------|------------------|----------------|
   A :-------------------------|------------------|----------------|
   E :-------------------------|------------------|----------------|
   It has to start 

   E :----------------|----------------|----------------|
   B :----------------|----------------|----------------|
   G :----------------|----------------|----------------|
   D :----------------|----------------|----------------|
   A :----------------|----------------|----------------|
   E :----------------|----------------|----------------|
   somewhere 

   E :----------------------|-------------------|----------------------|
   B :----------------------|-------------------|----------------------|
   G :----------------------|-------------------|----------------------|
   D :----------------------|-------------------|----------------------|
   A :----x----------x------|----x--------------|----x----------x------|
   E :0-2*x14\---0-2*x14\---|0-2*x14\---*-------|0-2*x14\---0-2*x14\---|


   E :-------------------|----------------------|-------------------|
   B :-------------------|----------------------|-------------------|
   G :-------------------|----------------------|-------------------|
   D :-------------------|----------------------|-------------------|
   A :----x--------------|----x----------x------|----x--------------|
   E :0-2*x14\---*-------|0-2*x14\---0-2*x14\---|0-2*x14\---*-------|


   E :----------------------|-------------------|----------------------|
   B :----------------------|-------------------|----------------------|
   G :----------------------|-------------------|----------------------|
   D :----------------------|-----------xxxxxxxx|----------------------|
   A :----x----------x------|----x------xxxxxxxx|----x----------x------|
   E :0-2*x14\---0-2*x14\---|0-2*x14\---xxxxxxxx|0-2*x14\---0-2*x14\---|


   E :-------------------|----------------------|-------------------|
   B :-------------------|----------------------|-------------------|
   G :-------------------|----------------------|-------------------|
   D :-----------xxxxxxxx|----------------------|-----------xxxxxxxx|
   A :----x------xxxxxxxx|----x----------x------|----x------xxxxxxxx|
   E :0-2*x14\---xxxxxxxx|0-2*x14\---0-2*x14\---|0-2*x14\---xxxxxxxx|


   E :----------------|
   B :----------------|
   G :----------------|
   D :*---------------|
   A :*---------------|
   E :*---------------|

   Questions? Comments? Email at: P*

   [Note: This song riff is very easy to play, but that isn't what it's *
   Tom.
   If you know RAGE, then you would know all the stuff that Tom Morrelo does with
   his guitar.
   Like on this song he move the toggle swith back and fourth which you may not be
   able to do
   while playing at the same time. Just follow the TAB and listen to the song and
   you'll get
   the hang of it. Good Luck!] 
Composição de Brad Wilk / Tim Commerford / Tom Morello / Zack de la Rocha
1.089 exibições
    • ½ Tom
    • A
    • Bb
    • B
    • C
    • Db
    • D
    • Eb
    • E
    • F
    • F#
    • G
    • Ab
  • Adicionar à lista

    0 comentários

    Ver todos os comentários

    Conseguiu tocar?

    0 Tocaram 0 Ainda não

    Grave um vídeo tocando Guerilla Radio e nos envie!

    00:00 / 00:00
    Outros vídeos desta música
    Repetir Qualidade Automático
    Outros vídeos desta música
    00:00 / 00:00
    Automático

    Cifra Club Pro

    Aproveite o Cifra Club com benefícios exclusivos e sem anúncios
    Cifra Club Pro
    Aproveite o Cifra Club com benefícios exclusivos e sem anúncios
    OK