Cifra Club

Crucificados Pelo Sistema

Sepultura

Cifra: Principal
exibições 2.222
Tom: A
play in a band you really should play this. This song kicks!!

Tabbed by Joar Kenneth Myhre.
E-mail: *
--------------------------------------------------------------------
  *RIFF A*

  The first time guitar 1 plays  
  the main riff alone.

e:||------------------------------------||              |
B:||------------------------------------||              |
G:||--6/8--8--6--8--8--6--8--8-----11-11||              |--     Guitar 1
D:||--6/8--8--6--8--8--6--8--8-----11-11||              |
A:||--4/6--6--4--6--6--4--6--6--x--9--9-||              |       
E:||------------------------------------||              |

e:||------------------------------------||              |
B:||------------------------------------||              |
G:||------------------------------------||              |--     Guitar 2
D:||------------------------------------||              |
A:||------------------------------------||              |
E:||------------------------------------||              |
  
  *RIFF B* 

  Then guitar2 and drums enter.
  Play 4 times.
e:-------------------------------------||               |       
B:-------------------------------------||               |
G:--6/8--8--8--8--8--6--8--8-----11-11-||               |--     Guitar 1
D::-6/8--8--8--8--8--6--8--8-----11-11:||               |       
A:--4/6--6--4--6--6--4--6--6--x--9--9--||               |
E:-------------------------------------||               |

e:-------------------------------------||               |
B:-------------------------------------||               |
G:-------------------------------------||               |--     Guitar 2                                
D:--4/4--4-----4--4-----4--4-----7--7--||               |
A:--4/4--4--4--4--4--4--4--4-----7--7--||               |
E:--0/2--2--0--2--2--0--2--2--0--5--5--||               |       

  Start singing.
 
  *RIFF C*
                                                
e:--------------------------------------||              |                
B:--------------------------------------||              |
G:--------------------------------------||              |--     Guitar 1
D::-4/4--4-----4--4-----4--4-----7--7--:||              |
A:--4/4--4--4--4--4--4--4--4-----7--7---||              |
E:--0/2--2--0--2--2--0--2--2--0--5--5---||              |

e:--------------------------------------||              |
B:--------------------------------------||              |       
G:--------------------------------------||              |--     Guitar 2
D::-4/4--4-----4--4-----4--4-----7--7--:||              |
A:--4/4--4--4--4--4--4--4--4-----7--7---||              |
E:--0/2--2--0--2--2--0--2--2--0--5--5---||              |

  *RIFF D*

  Chorus.                -Back to the main riff.    *RIFF E*
  Play 4 times.          -Chorus.
  3. time start singing
e:--------------------------------------------------|-----|     |
B:--------------------------------------------------|-----|     |
G:--------------------------------------------------|--7--|     |--     Guitar1
D::------------------------------------------------:|--7--|     |
A:--6--6--6--6--9--9--9--9--6--6--6--6--9--9--9--9--|--5--|     |
E:--4--4--4--4--7--7--7--7--4--4--4--4--7--7--7--7--|--5--|     |

e:--------------------------------------------------|-----|     |
B:--------------------------------------------------|-----|     |
G:--------------------------------------------------|--7--|     |--     Guitar2 
D::------------------------------------------------:|--7--|     |
A:--6--6--6--6--9--9--9--9--6--6--6--6--9--9--9--9--|--5--|     |
E:--4--4--4--4--7--7--7--7--4--4--4--4--7--7--7--7--|--5--|     |


Lyrics:

1.
        Nascer para liberdade
        E crescer para morrer

Chorus.

2.
        Morrer sem esquecer
        o povo que ficou

Chorus.

3.
        Repeat verse 1.



*********************THE RIFFS ARE PLAYED AS FOLLOWED*************************


-First riff A.  1 time.

-Then riff B.   4 times.

-Then riff C.   2 times.        Start singing first time.

-Then riff D.   4 times.        Start singing 3. time.

-Then riff B.   2 times.

-Then riff C.   2 times.        Start singing first time.

-Then riff D.   4 times.        Start singing 3. time.

-Then riff E.   1 time.         Note: Hold this note. Then Max go "AAHHH"
                                      Andreas plays the solo. Max play riff C.

-Then riff C.   2 times.        Start singing first time.

-Then riff D.   4 times.        Start singing 3. time.
*******************************************************************************

Then the song ends with a BANG. Just hit the E after the chorus.

If you have a CD with this song, there shouldn't be any problem playing it.

The solo......Well e-mail me, and I'll see what I can do.


*This song was tabbed by Joar Kenneth Myhre.
E-mail: *
Acordes para:

    0 comentários

      mostrar mais comentários

      Conseguiu tocar?

      1tocaram0ainda não

      Grave um vídeo tocando Crucificados Pelo Sistema e mande pra gente!

      00:00 / 00:00
      outros vídeos desta música
      repetirqualidadeautomática
      Outro vídeos desta música
        00:00 / 00:00
        automática
        OK