Cifra Club

Dead Memories

Slipknot

Tab de baixo: Principal
exibições 9.071
(guitarra começa tocando a intro - o contra-baixo começa junto com a bateria)

|----------------------------|
|----------------------------|
|----------------------------|5x
|---5----8----6-----5-5-5----|

|------------------------|
|------------------------|
|------------------------|
|------5-5-5-5-5-5-5-5-5-|

|----------------------------|
|----------------------------|8x
|----------------------------|
|---5----8----6-----5-5-5----|

|-----------------------------|
|-----------------------------|
|-----------------------------|4x
|---5-8-7-3---0-0-0-0-6-6-6-6-|

|------------------------------------------------|
|------------------------------------------------|
|------------------------------------------------|
|-5-5-5-5-5--8-8-8-8-8--0-0-0-0-0--10-10-10-10-10|

|---------------------------------------------------|
|---------------------------------------------------|
|---------------------------------------------------|
|-5-5-5-5-5--8-8-8-8-8--3-3-3--2--2-2-2--1-1-1-0-0-0|

|----------------------------|
|----------------------------|
|----------------------------|2x
|---5----8----6-----5-5-5----|

|------------------------|
|------------------------|
|------------------------|
|------5-5-5-5-5-5-5-5-5-|

|---------------------------------------------|
|---------------------------------------------|
|---------------------------------------------|4x
|---55555----88888----66666-----5555555555----|

|-----------------------------|
|-----------------------------|
|-----------------------------|4x
|---5-8-7-3---0-0-0-0-6-6-6-6-|

|------------------------------------------------|
|------------------------------------------------|
|------------------------------------------------|
|-5-5-5-5-5--8-8-8-8-8--0-0-0-0-0--10-10-10-10-10|

|---------------------------------------------------|
|---------------------------------------------------|
|---------------------------------------------------|
|-5-5-5-5-5--8-8-8-8-8--3-3-3--2--2-2-2--1-1-1-0-0-0|

|----------------------------|
|----------------------------|
|----------------------------|
|---5----8----6-----5-5-5----|

|----------------------------|
|----------------------------|
|----------------------------|
|---5----8----6--------------|

|------------------------------|
|------------------------------|
|------------------------------|
|-5-5---5-5-5-5---5-5---5-5-5-5|

|-----------------------------|
|-----------------------------|
|-----------------------------|4x
|---5-8-7-3---0-0-0-0-6-6-6-6-|

|----------------------------------|
|----------------------------------|2x
|----------------------------------|
|-5----------8------0--------10----|

|--------------------------------------------|
|--------------------------------------------|
|--------------------------------------------|
|-5----------8------3-3-3--2--2-2-2--1-1-1-0-|

|------------------------------------------------|     |
|------------------------------------------------|     |
|------------------------------------------------|     |
|-5-5-5-5-5--8-8-8-8-8--0-0-0-0-0--10-10-10-10-10|     |
                                                       |  3x
|---------------------------------------------------|  |
|---------------------------------------------------|  |
|---------------------------------------------------|  |
|-5-5-5-5-5--8-8-8-8-8--3-3-3--2--2-2-2--1-1-1-0-0-0|  |
Composição: SlipknotColaboração e revisão:
  • vinicius ribeiro

0 comentários

    mostrar mais comentários

    Conseguiu tocar?

    11tocaram0ainda não

    Grave um vídeo tocando Dead Memories e mande pra gente!

    00:00 / 00:00
    outros vídeos desta música
    repetirqualidadeautomática
    Outro vídeos desta música
      00:00 / 00:00
      automática
      OK