Cifra Club

O Mais Clichê

Vivendo do Ócio

Cifra: Principal (violão e guitarra)
tom: C
Intro x2: Am C

Riff:
E|----------------------------------------------------------------------------------------|
B|--13s12----------13s12------------------12--13s12---------------------------------------|
G|---------14--12--------14--12----12--14------------14--12--12-----12--12--12h14---------|
D|---------------------------------------------------------------14----------------14-----|
A|----------------------------------------------------------------------------------------|
E|----------------------------------------------------------------------------------------|

E|----------------------------------------------------------------------------------------|
B|--13s12----------13s12-----------------12--13s12----------------------------------------|
G|---------14--12---------14--12--12--14------------14--12--12-----12--12--12h14--14------|
D|--------------------------------------------------------------14------------------------|
A|----------------------------------------------------------------------------------------|
E|----------------------------------------------------------------------------------------|

Am
Um caminho na minha vida
                           C
Indo de encontro com o que eu sempre senti
          Am
Dentro de mim uma resposta curta
       C
Quatro letras e uma canção
     G                            Am
Pode parecer o mais clichê dos clichês
     G                          Am    C     Bm5+
Pode se esconder se você não notar

(Intro)

Am
Dividir essa energia
                        C
Me traz de volta para o meu verdadeiro eu
        Am
Posso sorrir, compartilhar momentos
    C
Uma vida em um milhão
     G                            Am
Pode parecer o mais clichê dos clichês
     G                          Am    C     Bm5+
Pode se esconder se você não notar


F                  Am
Mil quilômetros de estrada ou de mar
F                  Am          C      Bm5+
Infinitos momentos para lembrar

     G                            Am
Pode parecer o mais clichê dos clichês
     G                          Am    C     Bm5+
Pode se esconder se você não notar


Vocalização: Am C (2x)

             G Am (2x)
         
             C Bm5+ Am
00:00 / 00:00
Outros vídeos desta música
Repetir
Outros vídeos desta música
Composição de Luca Bori, Jajá Caedoso, Davide Bori, Dieguito Reis
Colaboração e revisão:
  • Bia Alonso
  • Alan Santos
8.375 exibições
    • ½ Tom
    • A
    • Bb
    • B
    • C
    • Db
    • D
    • Eb
    • E
    • F
    • F#
    • G
    • Ab
  • Adicionar à lista

    0 comentários

    Ver todos os comentários

    Conseguiu tocar?

    3 Tocaram 1 Ainda não

    Grave um vídeo tocando O Mais Clichê e nos envie!

    Entre para oCifra Club PRO

    Tenha acesso a benefícios exclusivos no App e no Site

    • Chega de anúncios

    • Prioridade de compra em lançamentos

    • Mais recursos no app do Afinador

    • Atendimento Prioritário

    • Descontos nos produtos Cifra Club

    • Ajude a produzir mais conteúdo

    00:00 / 00:00

    Cifra Club Pro

    Aproveite o Cifra Club com benefícios exclusivos e sem anúncios
    Cifra Club Pro
    Aproveite o Cifra Club com benefícios exclusivos e sem anúncios
    OK