Cifra Club

Aprenda

Blame It On My Youth

Blink-182

Cifra: Principal (violão e guitarra)
Tom: Eb
[Intro]

E|----------------------------------------------------|
B|------8~~-------9p8--------------8~~-------9p8------|
G|-8-10-----~8h10-----10-8----8-10-----~8h10-----10-8-|
D|----------------------------------------------------|
A|----------------------------------------------------|
E|----------------------------------------------------|

E|----------------------------------------------------|
B|------8~~-------9p8--------------8-------9p8--------|
G|-8-10-----~8h10-----10-8----8-10----8-10------------|
D|----------------------------------------------------|
A|----------------------------------------------------|
E|----------------------------------------------------|

[Primeira Parte]

E|----------------------------------------|
B|----------------------------------------|
G|----------------------------------------|
D|--5------5----8-5------5------5---------| (2x)
A|----6-8-----6------------6-8-----6-8----|
E|-------------------------------------6--|

Eb5                      Bb5
  I wasn't born with the rich blood
Eb5                            Bb5        Ab5
  I started out with plenty of nothing at all
                   Bb5
I got stuck in the thick mud
Ab5                                 Bb5 Eb5
  The flash flood punk rock and the alcohol

E|----------------------------------------|
B|----------------------------------------|
G|----------------------------------------|
D|--5------5----8-5------5------5---------|
A|----6-8-----6------------6-8-----6-8----|
E|-------------------------------------6--|

E|----------------------------------------|
B|----------------------------------------|
G|--8-8-8-8-8-8-8-8------8-8-8-8-8-8-8-8--|
D|--x-x-x-x-x-x-x-x------x-x-x-x-x-x-x-x--|
A|--6-6-6-6-6-6-6-6------6-6-6-6-6-6-6-6--|
E|----------------------------------------|

Eb5               Bb5
I was raised on a re run
Eb5                          Bb5      Ab5
  I was bored to death so I started a band
                         Bb5
Cut my teeth on a safety dance
     Ab5                        Bb5
My attention span never stood a chance

[Pré-Refrão]

     F5
It's too late
           Ab5
Can you forgive me now?

[Refrão]

              Eb5
You can never kill my high
                Eb5                  Bb5
I'm the ink and you're the headline (Oh)
Ab5
Blame it on blame it on my youth
Ab5                              Bb5
Blame it on blame it on my youth
              Eb5
You can never block my shine
                     Eb5   Bb5
I've been lost since 1999 (Oh)
Ab5
Blame it on blame it on my youth
Ab5                             Bb5 Eb5
Blame it on blame it on my youth

[Segunda Parte]

E|----------------------------------------|
B|----------------------------------------|
G|----------------------------------------|
D|--5------5----8-5------5------5---------| (2x)
A|----6-8-----6------------6-8-----6-8----|
E|-------------------------------------6--|

Eb5                     Bb5
  I wasn't made for the good life
Eb5                               Bb5         Ab5
  I ended up getting stuck on the side of the road
                      Bb5
I tripped and fell on hard times
Ab5                             Bb5    Eb5
  The tough breaks are the only kind I know

E|----------------------------------------|
B|----------------------------------------|
G|----------------------------------------|
D|--5------5----8-5------5------5---------|
A|----6-8-----6------------6-8-----6-8----|
E|-------------------------------------6--|

E|----------------------------------------|
B|----------------------------------------|
G|--8-8-8-8-8-8-8-8------8-8-8-8-8-8-8-8--|
D|--x-x-x-x-x-x-x-x------x-x-x-x-x-x-x-x--|
A|--6-6-6-6-6-6-6-6------6-6-6-6-6-6-6-6--|
E|----------------------------------------|

Eb5             Bb5
I was left on a door step
Eb5                          Bb5        Ab5
  I was scared to death with nowhere to go
                             Bb5
Cut myself on the neighbor's fence
       Ab5                                 Bb5
That I hopped as the cops tried to take me in

[Pré Refrão]

     F5
It's too late
           Ab5
Can you forgive me now?

[Refrão]

              Eb5
You can never kill my high
                Eb5                  Bb5
I'm the ink and you're the headline (Oh)
Ab5
Blame it on blame it on my youth
Ab5                              Bb5
Blame it on blame it on my youth
              Eb5
You can never block my shine
                     Eb5   Bb5
I've been lost since 1999 (Oh)
Ab5
Blame it on blame it on my youth
Ab5                             Bb5 Eb5
Blame it on blame it on my youth

[Ponte]

E|------------------------------------------------------------|
B|-----8-------8----------9s8-------9---------8-------8-------|
G|---8---8---8---8------8-----8---8---8-----8---8---8---8-----|
D|-8-------8----------6---------6---------8-------8-----------|
A|------------------------------------------------------------|
E|------------------------------------------------------------|

E|------------------------------------------------------------|
B|-----6h8p6-------9----------8-------8---------9s8-------9---|
G|---8-------8---8---8------8---8---8---8-----8-----8---8---8-|
D|-6-----------6----------8-------8---------6---------6-------|
A|------------------------------------------------------------|
E|------------------------------------------------------------|

E|------------------------------------------------------------|
B|-----8-------8----------------------------------------------|
G|---8---8---8---8--------------------------------------------|
D|-8-------8--------6-6--5-5--6-6-6-6-6-6-6-6-6-6-6-6-6-------|
A|------------------x-x--x-x--x-x-x-x-x-x-x-x-x-x-x-x-x-------|
E|------------------4-4--3-3--4-4-4-4-4-4-4-4-4-4-4-4-4-------|

Bb5                   Ab5
  I was raised on the Ritalin
Bb5                  Ab5
  Ever since I was a little kid
Bb5                     Ab5
  No one ever seemed to give a shit
F5                  Ab5
  I don't need an excuse
        Ab5
I don't need an excuse

[Refrão]

              Eb5
You can never kill my high
                Eb5                  Bb5
I'm the ink and you're the headline (Oh)
Ab5
Blame it on blame it on my youth
Ab5                              Bb5
Blame it on blame it on my youth
              Eb5
You can never block my shine
                     Eb5   Bb5
I've been lost since 1999 (Oh)
Ab5
Blame it on blame it on my youth
Ab5                             Bb5 Eb5
Blame it on blame it on my youth

              Eb5
You can never kill my high
                Eb5                  Bb5
I'm the ink and you're the headline (Oh)
Ab5
Blame it on blame it on my youth
Ab5
Blame it on blame it on my youth

[Final]

Eb5
Endless summer
Eb5               Ab5
Stretching on and on
Composição de Mark Hoppus
Colaboração e revisão:
  • Renan Luiz
285 exibições
    • ½ Tom
    • A
    • Bb
    • B
    • C
    • Db
    • D
    • Eb
    • E
    • F
    • F#
    • G
    • Ab
  • Adicionar à lista

    0 comentários

    Mostrar mais comentários

    Conseguiu tocar?

    2 Tocaram 0 Ainda não

    Grave um vídeo tocando Blame It On My Youth e mande pra gente!

    00:00 / 00:00
    outros vídeos desta música
    repetir qualidade Automático
    Outros vídeos desta música
    00:00 / 00:00
    Automático

    Cifra Club Pro

    Aproveite o Cifra Club com benefícios exclusivos e sem anúncios
    7 dias grátis
    Cifra Club Pro
    Aproveite o Cifra Club com benefícios exclusivos e sem anúncios
    7 dias grátis
    OK