Cifra Club

Bored To Death

blink-182

Tab de baixo: Principal
Introdução: Só guitarra.

Verso:

“There’s an echo pulling out the meaning...”

G|---------------------------------------------------------------------------|
D|---------------------------------------------------------------------------|
A|-0-0-0-0-0-0-0-0-3-3-3-3-3-3-3-3-8-8-8-8-8-8-8-8-8-8-8-8-8-8-8-8-8---------| 4x
E|---------------------------------------------------------------------------|

“And it's a long way back from seventeen...”

G|----------------------------------------------------|
D|-------------------------------------10-----15~~~~--|
A|-0-0-0-0-0-0-0-0-3-3-3-3-3-3-3-3--3/8---/8--15~~~~--|
E|----------------------------------------------------|

Refrão:

“Save your breath, I’m nearly bored to death and fading fast...”

G|-----------------------------------------------------------------------|
D|-----------------------------------------------------------------------|
A|-333333-33333333-------------------------------------------------------|
E|-----------------33333333-33333333-55555555-55555555-11111111-11111111-|

G|-------------------------------------------------------------|
D|------------------------------------------------------10~~~~-|
A|-333333-33333333--------------------------------------8~~~~~-|
E|-----------------33333333-33333333-55555555-55555555---------|

Verso:

“There's a stranger staring a the ceiling...”

G|---------------------------------------------------------------------------|
D|---------------------------------------------------------------------------|
A|-0-0-0-0-0-0-0-0-3-3-3-3-3-3-3-3-8-8-8-8-8-8-8-8-8-8-8-8-8-8-8-8-8---------| 4x
E|---------------------------------------------------------------------------|

“And it's a long way back from seventeen...”

G|----------------------------------|
D|-------------------10-----15~~~~--|
A|-0-0~~~~-3~~~~--3/8---/8--15~~~~--|
E|----------------------------------|

Refrão:

“Save your breath, I’m nearly bored to death and fading fast...”

G|-----------------------------------------------------------------------|
D|-----------------------------------------------------------------------|
A|-333333-33333333-------------------------------------------------------|
E|-----------------33333333-33333333-55555555-55555555-11111111-11111111-|

G|-------------------------------------------------------------|
D|------------------------------------------------------10~~~~-|
A|-333333-33333333--------------------------------------8~~~~~-|
E|-----------------33333333-33333333-55555555-55555555---------|

Ponte:

“Oh oh, oh oh... I think I met her at the minute that the rhythm was set down...”

G|---------------------------------------------------------------------------|
D|---------------------------------------------------------------------------|
A|-3-3-3-3-2-2-2-3-3-3-3-3-2-2-2---------------------------------2-2---------| 7x
E|-------------------------------0-0-1-1-1-1-0-0-3-3-3-3-3-3-3-3-------------|

G|-----------------------------------------------------------------------------------|
D|-----------------------------------------------------------------------------------|
A|-3-3-3-3-3-3-3-3-3-8-8-8-8-8-8-8-8-10-10-10-10-10-10-10-10-10-10-10-10-10-10-10-10-|
E|-----------------------------------------------------------------------------------|

Refrão:

“Save your breath, I’m nearly bored to death and fading fast...” (Só voz)

  _____________________________________________________"...life is too short..."

G|-----------------------------------------------------------------------|
D|-----------------------------------------------------------------------|
A|-----------------------------------------------------------------------|
E|-----------------------------------55555555-55555555-11111111-11111111-|

G|-------------------------------------------------------------|
D|------------------------------------------------------10~~~~-|
A|-333333-33333333--------------------------------------8~~~~~-|
E|-----------------33333333-33333333-55555555-55555555---------|

Outro:

“Oh Oh, Oh Oh, Oh Oh...”

G|-----------------------------------------------------------------------------------|
D|-----------------------------------------------------------------------------------|
A|-3-3-3-3-3-3-3-3-3-8-8-8-8-8-8-8-8-10-10-10-10-10-10-10-10-10-10-10-10-10-10-10-10-| x6
E|-----------------------------------------------------------------------------------|

G|-5~~~~--|
D|-5~~~~--|
A|-3~~~~--|
E|--------|
exibições 926
Composição: Mark Hoppus / Matt Skiba / Travis Barker Colaboração e revisão:
  • Vinicius Uzêda
  • Diou Medeiros

0 comentários

mostrar mais comentários

Conseguiu tocar?

5 tocaram 0 ainda não

Grave um vídeo tocando Bored To Death e mande pra gente!

00:00 / 00:00
outros vídeos desta música
repetir qualidade Automático
Outros vídeos desta música
00:00 / 00:00
Automático
OK