Cifra Club

Carousel

blink-182

Cifra: Versão 5 (violão e guitarra)
Tom: G
x = Palm Mute

                              Com distorção

E|---------------------------------------------------|
B|---------------------------------------------------|
G|-7-7-7-7-7-7--7-7--7-7-7-7-7-7--7-7----------------|
D|-7-7-7-7-7-7--7-7--7-7-7-7-7-7--7-7-4h5--5-5-4-----|
A|-5-5-5-5-5-5--5-5--5-5-5-5-5-5--5-5------------7-4-|
E|---------------------------------------------------|
  x x x x x x  x x  x x x x x x  x x

E|----------------------------------------------------------|
B|----------------------------------------------------------|
G|-6-6-6-6-6-6-6--6--6-6-6-6-6-6-6-6-6-6-6-6----------------|
D|-6-6-6-6-6-6-6--6--6-6-6-6-6-6-6-6-6-6-6-6-4h5--5-5-4-----|
A|-4-4-4-4-4-4-4--4--4-4-4-4-4-4-4-4-4-4-4-4------------7-5-|
E|----------------------------------------------------------|
   x x x x x x x     x x x x x x x x x x x x

E|---------------------------------------------------|
B|---------------------------------------------------|
G|-7-7-7-7-7-7--7-7--7-7-7-7-7-7--7-7----------------|
D|-7-7-7-7-7-7--7-7--7-7-7-7-7-7--7-7-4h5--5-5-4-----|
A|-5-5-5-5-5-5--5-5--5-5-5-5-5-5--5-5------------7-4-|
E|---------------------------------------------------|
  x x x x x x  x x  x x x x x x  x x

E|------------------------------------------------------------------------|
B|------------------------------------------------------------------------|
G|-6-6-6-6-6-6-6--6--6-6-6-6-6-6-6-6-6-6-6-6----------------6-6-6-6-6-----|
D|-6-6-6-6-6-6-6--6--6-6-6-6-6-6-6-6-6-6-6-6-4h5--5-5-4-----6-6-6-6-6-----|
A|-4-4-4-4-4-4-4--4--4-4-4-4-4-4-4-4-4-4-4-4------------7-5-4-4-4-4-4-4h5-|
E|------------------------------------------------------------------------|
   x x x x x x x     x x x x x x x x x x x x

                         Essas 2 partes são no baixo
Parte 1:
G|---11-11-12-14-12-11-----6-6-7-9-7-6-----9-9-11-12-11-9-11-----7-----7---7-|
D|-0-------------------0-7-------------7-9-------------------5-5---5-5---5---|
A|---------------------------------------------------------------------------|
E|---------------------------------------------------------------------------|

G|---11-11-12-14-12-11-----6-6-7-9-7-6-----9-9-11-12-12-11-11--7-7-7-7-7-7-7-|
D|-0-------------------0-7-------------7-9---------------------5-5-5-5-5-5-5-|
A|---------------------------------------------------------------------------|
E|---------------------------------------------------------------------------|

Parte 2:
G|-7-7-7h11--11-11-11--11-11-11p9--9-9-9--9-9-9h11--11-11-11--11-11-11p7--7-7-7-|
D|-5-5-5h9---9--9--9---9--9--9p-7--7-7-7--7-7-7h9---9--9--9---9--9--9p-5--5-5-5-|4x
A|------------------------------------------------------------------------------|
E|------------------------------------------------------------------------------|

   Durante a segunda parte no baixo a guitarra fica assim sem distorção

E|--------------------------------------------------------------|
B|--------------------------------------------------------------|
G|--------------------------------------------------------------|
D|-4-4-4h6--6-6-6--6-6-6----------------------------------------|
A|-2-2-2h4--4-4-4--4-4-4--6-6-6--6-6-6h8--8-8-8--8-8-8p4--4-4-4-|
E|------------------------4-4-4--4-4-4h6--6-6-6--6-6-6p2--2-2-2-|

                            Agora com distorção

E|--------------------------------------------------------------------|
B|--------------------------------------------------------------------|
G|-7-7-7-7-7-7-7-7--2-2-2-2-2-2-2-2--4-4-4-4-4-4-4-4------------------|2x
D|-7-7-7-7-7-7-7-7--2-2-2-2-2-2-2-2--4-4-4-4-4-4-4-4--5-5-5-5-5-5-5-5-|
A|-5-5-5-5-5-5-5-5--0-0-0-0-0-0-0-0--2-2-2-2-2-2-2-2--5-5-5-5-5-5-5-5-|
E|----------------------------------------------------3-3-3-3-3-3-3-3-|

E|---------------------------------|
B|---------------------------------|
G|---------------------------------|
D|---------------------------------|
A|-4-5--4-5-5-5-5-5-7-5-4-5--4-4-5-|
E|---------------------------------|

E|---------------|
B|---------------|
G|---------------|
D|-----4-5-4-----|
A|-7-5-------7-5-|
E|---------------|

E|----------------------------------|
B|----------------------------------|
G|----------------------------------|
D|-4-4-4-4-4h5-4-2--2-2--2-2-2-2--2-|
A|----------------------------------|
E|----------------------------------|

E|-------------------------------|
B|-------------------------------|
G|-------------------------------|
D|-4-4-4-4-4h5-4-7-7-5-5-4-4-2-2-|
A|-------------------------------|
E|-------------------------------|

E|-------------------------------|
B|-------------------------------|
G|-------------------------------|
D|-4-4-4-4-4h5-4-2--2-2--2-2-2-2-|
A|-------------------------------|
E|-------------------------------|

E|-------------------------------|
B|-------------------------------|
G|-------------------------------|
D|-0-2-0-4-0-5-0-4-0-2-4-5-4-2-0-|
A|-------------------------------|
E|-------------------------------|
                                     
E|--------------------------------------------------------------------|
B|--------------------------------------------------------------------|
G|-7-7-7-7-7-7-7-7--2-2-2-2-2-2-2-2--4-4-4-4-4-4-4-4------------------|4x
D|-7-7-7-7-7-7-7-7--2-2-2-2-2-2-2-2--4-4-4-4-4-4-4-4--5-5-5-5-5-5-5-5-|
A|-5-5-5-5-5-5-5-5--0-0-0-0-0-0-0-0--2-2-2-2-2-2-2-2--5-5-5-5-5-5-5-5-|
E|----------------------------------------------------3-3-3-3-3-3-3-3-|

E|--------------------------------------------------------------------|
B|--------------------------------------------------------------------|
G|-7-7-7-7-7-7-7-7--9-9-9-9-9-9-9-9--2-2-2-2-2-2-2-2------------------|3x
D|-7-7-7-7-7-7-7-7--9-9-9-9-9-9-9-9--2-2-2-2-2-2-2-2--5-5-5-5-5-5-5-5-|
A|-5-5-5-5-5-5-5-5--7-7-7-7-7-7-7-7--0-0-0-0-0-0-0-0--5-5-5-5-5-5-5-5-|
E|----------------------------------------------------3-3-3-3-3-3-3-3-|

E|----------------------------------------------|
B|----------------------------------------------|
G|-7-7-7-7-7-7-7-7--9-9-9-9-9-9-9-9--2----------|
D|-7-7-7-7-7-7-7-7--9-9-9-9-9-9-9-9--2--5-5-5-5-|
A|-5-5-5-5-5-5-5-5--7-7-7-7-7-7-7-7--0--5-5-5-5-|
E|--------------------------------------3-3-3-3-|

E|----------------------------------|
B|----------------------------------|
G|----------------------------------|
D|-4-4-4-4-4h5-4-2--2-2--2-2-2-2--2-|
A|----------------------------------|
E|----------------------------------|

E|-------------------------------|
B|-------------------------------|
G|-------------------------------|
D|-4-4-4-4-4h5-4-7-7-5-5-4-4-2-2-|
A|-------------------------------|
E|-------------------------------|

E|-------------------------------|
B|-------------------------------|
G|-------------------------------|
D|-4-4-4-4-4h5-4-2--2-2--2-2-2-2-|
A|-------------------------------|
E|-------------------------------|

E|-------------------------------|
B|-------------------------------|
G|-------------------------------|
D|-0-2-0-4-0-5-0-4-0-2-4-5-4-2-0-|
A|-------------------------------|
E|-------------------------------|

E|--------------------------------------------------------------------|
B|--------------------------------------------------------------------|
G|-7-7-7-7-7-7-7-7--2-2-2-2-2-2-2-2--4-4-4-4-4-4-4-4------------------|2x
D|-7-7-7-7-7-7-7-7--2-2-2-2-2-2-2-2--4-4-4-4-4-4-4-4--5-5-5-5-5-5-5-5-|
A|-5-5-5-5-5-5-5-5--0-0-0-0-0-0-0-0--2-2-2-2-2-2-2-2--5-5-5-5-5-5-5-5-|
E|----------------------------------------------------3-3-3-3-3-3-3-3-|

E|------------------------------------------|
B|------------------------------------------|
G|------------------------------------------|
D|----4--5--7--5--4-------------------------|
A|-5-----------------5-----4--5--7--5--4----|
E|----------------------5-----------------5-|

E|------------------------------------------|
B|------------------------------------------|
G|------------------------------------------|
D|------------------------------------------|
A|----6--7--9--7--6--------2--3--5--3--2----|
E|-7-----------------7--3-----------------3-|

E|--------------------------------------------------------------------|
B|--------------------------------------------------------------------|
G|-7-7-7-7-7-7-7-7--9-9-9-9-9-9-9-9--2-2-2-2-2-2-2-2------------------|3x
D|-7-7-7-7-7-7-7-7--9-9-9-9-9-9-9-9--2-2-2-2-2-2-2-2--5-5-5-5-5-5-5-5-|
A|-5-5-5-5-5-5-5-5--7-7-7-7-7-7-7-7--0-0-0-0-0-0-0-0--5-5-5-5-5-5-5-5-|
E|----------------------------------------------------3-3-3-3-3-3-3-3-|

E|-------------------------------------------------|
B|-------------------------------------------------|
G|-7-7-7-7-7-7-7-7--9-9-9-9-9-9-9-9--2-----------7-|
D|-7-7-7-7-7-7-7-7--9-9-9-9-9-9-9-9--2--5-5-5-5--7-|
A|-5-5-5-5-5-5-5-5--7-7-7-7-7-7-7-7--0--5-5-5-5--5-|
E|--------------------------------------3-3-3-3----|


Letra:

I talk to you every now and then 
I never felt so alone again 
I stop to think at a wishing well 
My thoughts send me on a Carousel 

Here I am standing on my own 
Not a motion from the telephone 
I know not a reason why 
Solitude's a reason to die 

Just you wait and see 
A school life is a 
It is a woken dream 

Aren't you feeling alo-o-o-o-one? 
I guess its just another 
I guess its just another 
I guess its just another night alone 

Now as I walk down the street 
I need a job just to sleep in sheets 
Buying food every once in a while 
But not enough to purchase a smile 

A tank of gas is a treasure to me 
I know now that nothing is free 
I talk to you every now and then 
I never felt so alone again 

Just you wait and see 
As school life is a 
It is a woken dream 

Aren't you feeling alo-o-o-o-one? 
I guess its just another 
I guess its just another 
I guess its just another night alone
exibições 1.930
Acordes para:
    Composição: blink-182 Colaboração e revisão:
    • Victor Mourato

    0 comentários

    mostrar mais comentários

    Conseguiu tocar?

    0 tocaram 0 ainda não

    Grave um vídeo tocando Carousel e mande pra gente!

    00:00 / 00:00
    outros vídeos desta música
    repetir qualidade Automático
    Outros vídeos desta música
    00:00 / 00:00
    Automático
    OK