Cifra Club

Carousel

blink-182

Tab de baixo: Versão 2
Intro:
G|-----11-11-12-14-12-11--------------------------------8-8-9-11-9-8----------------|
D|-12--------------------12----11-11-12-14—12-11------9--------------9-12-12-12-12--|
A|--------------------------12-------------------12--------------------10-10-10-10—-| (2x)
E|----------------------------------------------------------------------------------|

G|-11-11-11-11-11--9-9-9-9-9—-11-11-11-11-11---------------|
D|-0--0--0--0--0---7-7-7-7-7---9--9--9--9--9-12-12-12-12---|
A|-------------------------------------------10-10-10-10---|
E|---------------------------------------------------------|

Verso:
G|----------------------------------|
D|----------------------------------|
A|-5-5-5-5---------2-2-2-2----------|
E|---------5-5-5-5---------3-3-3-3—-|

Refrão:
G|----------------------------------|
D|----------------------------------|
A|-5-5-5-5-7-7-7-7------------------|
E|------------------5-5-5-5-3-3-3-3—|

Interlúdio:
G|-11-11-11-11-11--9-9-9-9-9—11-11-11-11-11--7-7-7-7-7-|
D|--0--0--0--0--0--7-7-7-7-7--9--9--9--9--9--5-5-5-5-5-|
A|-----------------------------------------------------|
E|-----------------------------------------------------|
exibições 11.102
Composição: blink-182

0 comentários

mostrar mais comentários

Conseguiu tocar?

3 tocaram 0 ainda não

Grave um vídeo tocando Carousel e mande pra gente!

00:00 / 00:00
outros vídeos desta música
repetir qualidade Automático
Outros vídeos desta música
00:00 / 00:00
Automático
OK