Cifra Club

Aprenda

Carousel

Blink-182

Tab de baixo: Versão 4
G|-14-14-14-12-12-12-11-11--|
D|-0--0--0--0--0--0--0--0--|
A|-------------------------|
E|-------------------------|


G|-6-6-6-7-7-7-9-9---------|
D|-7-7-7-7-7-7-7-7---------|
A|-------------------------|
E|-------------------------|

G|-12-12-12-11-11-11-9-9---|
D|-9--9--9--9--9--9-9-9----|
A|-------------------------|
E|-------------------------|

G|-7-7-7-7-7-7-7-7---------|
D|-5-5-5-5-5-5-5-5---------|
A|-------------------------|
E|-------------------------|


Intro Parte 1
G|---11-11-12-14-12-11--------6-6-7-9-7-6-------9-9-11-12-11-9-11-----7-----7---7-| 
D|-0-------------------12--7--------------7-/-9-------------------5-5---5-5---5---|
A|--------------------------------------------------------------------------------|
E|--------------------------------------------------------------------------------|

Parte 2
G|---11-11-12-14-12-11--------6-6-7-9-7-6-------9-9-11-12-11-9-11-7-7-7-7-7-7-7-7-|
D|-0-------------------12--7-------------7-/-9--------------------5-5-5-5-5-5-5-5-|
A|--------------------------------------------------------------------------------|
E|--------------------------------------------------------------------------------|

Parte 3,
toque 4 vezes
G|-11-11-11-11-11-11--9-9-9-9-9-9-/-11-11-11-11-11-11--7-7-7-7-7-7---|
D|-0--0--0--0--0--0---7-7-7-7-7-7-/-9---9--9--9--9--9--5-5-5-5-5-5---|
A|-------------------------------------------------------------------| 
E|-------------------------------------------------------------------|
     
Toque 2 vezes
G|-11-11-11-11-11-11-11-11-9-9-9-9-9-9-9-9-11-11-11-11-11-11-11-11-7--9--7--6--|
D|--0--0--0--0--0--0--0--0-7-7-7-7-7-7-7-7--9-9-9-9-9---9--9--9--9-------------|
A|-----------------------------------------------------------------------------|
E|-----------------------------------------------------------------------------|

G|--------------------------------------------------------------------------------|
D|-------------------------------------------------/-5-5-5-5-5-5-5-5-/-7-\-5-4----|
A|-5-5-5-5-5-5-5-5-----------------2-2-2-2-2-2-2-2--------------------------------|
E|-----------------5-5-5-5-5-5-5-5------------------------------------------------|

G|--------------------------------------------------------------------------------|
D|----------------------------------------------------5-5-5-5-5-5-5-5-/-7-\-5-4---|
A|-5-5-5-5-5-5-5-5-----------------2-2-2-2-2-2-2-2-/------------------------------|
E|-----------------5-5-5-5-5-5-5-5------------------------------------------------|

  (I Talk to you every now and then)
G|-11-11-11-11-11-11-11-11--9-9-9-9-9-9-9-9-11-11-11-11-11-11-11-11--7-7-7-7-7-7-7-|
D|--0--0--0--0--0--0--0--0--7-7-7-7-7-7-7-7-9--9-9--9--9--9---9--9---5-5-5-5-5-5-5-|
A|---------------------------------------------------------------------------------|
E|---------------------------------------------------------------------------------|

G|------------------------------------------------------------------|
D|---------------------------------/7-7-7-7-7-7-7-7-5-5-5-5-5-5-5-7-|
A|-5-5-5-5-5-5-5-5-7-7-7-7-7-7-7-7----------------------------------|
E|------------------------------------------------------------------|

G|------------------------------------------|  
D|---------------------------/-5-5-5-5-5-5--|
A|-5-----2-----5-----2-2-2-2----------------|
E|----5-----3-----5-------------------------|

G|--------------------------------------------------------------------------------|
D|-------------------------------------------------/-5-5-5-5-5-5-5-5--------------|
A|-5-5-5-5-5-5-5-5-----------------2-2-2-2-2-2-2-2--------------------------------|
E|-----------------5-5-5-5-5-5-5-5------------------------------------------------|

G|-----------------------------------------------------------------|
D|--------------------------------/-7-7-7-7-7-7-7-5-5-5-5-5-5-5-/7-|
A|-5-5-5-5-5-5-5-5-7-7-7-7-7-7-7-7---------------------------------|
E|-----------------------------------------------------------------|
Composição de blink-182
Colaboração e revisão:
  • Lucas Costa
5.185 exibições

0 comentários

Mostrar mais comentários

Conseguiu tocar?

0 Tocaram 0 Ainda não

Grave um vídeo tocando Carousel e mande pra gente!

00:00 / 00:00
outros vídeos desta música
repetir qualidade Automático
Outros vídeos desta música
00:00 / 00:00
Automático

Cifra Club Pro

Aproveite o Cifra Club com benefícios exclusivos e sem anúncios
7 dias grátis
Cifra Club Pro
Aproveite o Cifra Club com benefícios exclusivos e sem anúncios
7 dias grátis
OK