Cifra Club

O Errado Que Deu Certo

Charlie Brown Jr.

Cifra: Principal
exibições 157.925
Tom: C#
Solo 1:


E|------------------------------------------------|
B|-----7--------------------11----------11--------|
G|----------------10-----------11----------11-----|
D|---8----8-----8----8------------11----------11--|
A|--6------6--8--------8--9-----------9-----------|
E|------------------------------------------------|

E|--9----------9--13----------13---11--------11--|
B|----11----11-------11----11---------9----9-----|
G|-------10-------------10--------------10-------|
D|-----------------------------------------------|
A|-----------------------------------------------|
E|-----------------------------------------------|

E|-14--------14-|
B|----9----9----|
G|------10------|
D|--------------|
A|--------------|
E|--------------|

(Primeira parte apenas o solo 1)

Mudei minha história e foi melhor pra mim
Nem sempre o que a vida me pede é aquilo que a vida me dá
Se eu corro atrás do que é melhor pra mim
Deve ser porque meu tempo de volta o seu dinheiro não traz

Com o coração na mão
Minha mente voa livre, leve, louco, bicho solto
Bem melhor, bem melhor
Faça da sua vida algo melhor do que já viu e ouviu sim ou não

Eu não busco a perfeição em ninguém
Não quero que busque isso em mim
Eles querem que você se sinta mal
Porque é assim que eles se sentem bem

Mas, tudo que é bom me lembra você
Vem comigo até o fim

Mudei minha história e foi melhor pra mim
                                    D#         D#   D#  F#
Nem sempre o que a vida me pede é aquilo que a vida me dá

Solo 2:


E|----------------------------|
B|----------------------------|
G|-----------------6----------|   (3X)
D|------------6h8----8-6------|
A|-4/6-6-6-6-------------6----|
E|----------------------------|

E|-----------------------------|
B|--------------------------9--|
G|-----------------6-8-8/10----|
D|------------6h8--------------|
A|-4/6-6-6-6-------------------|
E|-----------------------------|

E|----------------------------|
B|----------------------------|
G|-----------------6----------|   (3X)
D|------------6h8----8-6------|
A|-4/6-6-6-6-------------6----|
E|----------------------------|

E|-----------------------------|
B|--------------------------9--|
G|-----------------6-8-8/10----|
D|------------6h8--------------|
A|-4/6-6-6-6-------------------|
E|-----------------------------|



(Solo 1)

Leve essa música e traz um sorriso

Com o coração na mão
Eu sou o errado que deu certo
Mas quem que é errado no mundo dos espertos?
Bem melhor, bem melhor
Faça da sua vida algo melhor do que já viu e ouviu sim ou não



Eu não busco a perfeição em ninguém
Não quero que busque isso em mim
Eles querem que você se sinta mal
Porque é assim que eles se sentem bem

Mas, tudo que é bom me lembra você
Vem comigo até o fim

Mudei minha história e foi melhor pra mim
                                    D#         D#   D#  F#
Nem sempre o que a vida me pede é aquilo que a vida me dá

(Solo 2)


D#  F  D#  F  F#  G#  F#  F

D#  F  D#  F  F#  G#



E|--------------------|
B|--16-16-16/14-14----|
G|-----------------15-|
D|--------------------|
A|--------------------|
E|--------------------|


(Solo 1)

Leve essa música e traz um sorriso
Leve essa música e traz um sorriso
Acordes para:
    Composição: Guilermo PeladoColaboração e revisão:
    • Frederico Faria

    0 comentários

      mostrar mais comentários

      Conseguiu tocar?

      5tocaram7ainda não

      Grave um vídeo tocando O Errado Que Deu Certo e mande pra gente!

      00:00 / 00:00
      outros vídeos desta música
      repetirqualidadeautomática
      Outro vídeos desta música
        00:00 / 00:00
        automática
        OK