Cifra Club

Quinta-Feira

Charlie Brown Jr.

Cifra: Principal
exibições 421.858
Tom: C
Intro: G  C  F  C
       G  C  F  C

Riff:
E|-----------------------------------------------------------|
B|-------------------------------|---------------------------|
G|-------------------------------|---------------------------|
D|--------5-3-2----------2-3/5---|--------3-2-0--------2-3/5-|
A|---------------3-3---3--3------|--------------3-3--3--3----|
E|--3-3--3-----------------------|-1-1--1--------------------|

E|------------------------------------0------------------------|
B|-------------------------0----------------0------------------|
G|--------0--------------0---0---0--------0---0----0-----------|
D|------0---0---0------2-------2-------3---------3-------------|
A|----2-------2------3-------------------------------3-3-3- 5--|
E|--3--------------------------------1-------------------------|


          Em7                            D
Ainda me lembro bem daquela quinta-feira
         Em7                              D
Cinco malandro em volta da fogueira, Fogueira, yeah!

          Em7                                    D
Ouvi o grito de dor de um homem que falava a verdade mas ninguém se importava (2x)
           Em7                                                   D
Botando pra fora tudo que sentiu na pele mas ninguém lhe dava ouvidos não

          G                         C
Deixou a marca da fogueira que acendeu pra se (2x)
                    F  C
Livrar do frio que mata
           G
Miséria impune, notável,
    C              F         C
Sincera não acaba nunca, yeah!

     G                  C              F               C
Parecia inofensiva mas te dominou, te dominou, te dominou, dominou  (2x)
   G                    C              F                C
Parecia inofensiva mas te dominou, te dominou, te dominou, dominou

Oh!

(Riff)

Solo: G  C  F  C

       Em7
 O difícil é desviar de quem tá sempre querendo
           D
 Ela mantém a porta aberta ela te faz de instrumento,
        Em7                               D
 Vai te dominar, se já não dominou, yeah!
        Em7                                      D
 Ouvi o grito de dor de um homem que falava a verdade mas ninguém se importava
             Em7                                                D
 Botando pra fora tudo o que sentiu na pele ninguém lhe dava ouvidos não

         G                         C
Deixou a marca da fogueira que acendeu pra se
                   F    C
Livrar do frio que mata
          G
Miséria impune, notável,
   C                 F         C
Sincera não acaba nunca, yeah!

   G                   C               F                C
Parecia inofensiva mas te dominou, te dominou, te dominou, dominou
    G                     C               F              C
Parecia inofensiva mas te dominou, te dominou, te dominou, dominou

Oh!

(Riff)

Solo: G  C  F  C

E|-------------------------------------------------------------------------|
B|-------------------------------------------------------------------------|
G|--5/7-------------------------2-0---0--------0-2-4-2-0-----6/4-----------|
D|------10--9h10--9--5----2h3-5-----3------2h3---------------7/5--3h5-3----|
A|----------------------------------------------------------------------5--|
E|-------------------------------------------------------------------------|

E|--6h7-6-4------------------------------------12/13-12/13-12/13-12/13--12^-10-12-----|
B|----------6-5-3------------6-5-3------------------------------------------------11~~|
G|----------------6-5-3---5--------5-3---3-----14/15-14/15-14/15-14/15----------------|
D|----------------------5--------------5----------------------------------------------|
A|------------------------------------------------------------------------------------|
E|------------------------------------------------------------------------------------|


    G                     C               F              C
Parecia inofensiva mas te dominou, te dominou, te dominou, dominou
     G                     C               F                C
Parecia inofensiva mas te dominou, te dominou, te dominou, dominou
Acordes para:

    0 comentários

      mostrar mais comentários

      Conseguiu tocar?

      38tocaram1ainda não

      Grave um vídeo tocando Quinta-Feira e mande pra gente!

      00:00 / 00:00
      outros vídeos desta música
      repetirqualidadeautomática
      Outro vídeos desta música
        00:00 / 00:00
        automática
        OK