Enviar cifraEntrar

Um Dia a Gente Se Encontra

Charlie Brown Jr.

Cifra: Principal
exibições 82.165
Tom: D#
Intro: Eb5  Bb5 G#5 C5-Bb5 G#5 C5 Bb5 G#5 Bb5 C5 Bb5  G#5 Bb5

Solo:

     E           Bb             G# Cm-Bb
E|--------------------------------------|
B|--------------------------------------|
G|-----------8-----------10-8/13-12-10--|
D|-----------8-----------8--8/13-13-13--|
A|-6-6-6-6-6-6-1-1-1-1-1-8--6-----------|
E|--------------------------------------|


     E             Bb              G#               Cm - Bb
E|------------------------------------------------/11-10-8----|
B|-------------------------------11-11---------------------11-|
G|-8-8-8-------------------------------8-7-8/10/8-------------|
D|-------8-8-8-8-6-6-6-6-5-5-5-5------------------------------|
A|------------------------------------------------------------|
E|------------------------------------------------------------|


Canto 3

E|---------------------------------------|
B|---------------------------------9/8/9-|->Liks
G|---------------------------------8-----|->
D|---------------------------------------|
A|-6-6-6-6-1-1-1-1---------3-------------|Abafado
E|-----------------4-4-4-4---------------|

                           P

E|---------------------------------------|
B|---------------------------------------|
G|---------------------------------------|
D|---------------------------------------|
A|-6-6-6-6-1-1-1-1---------3-------------|Abafado
E|-----------------4-4-4-4---------------|

                           P

E|---------------------------------------|
B|----------------------------8-9-11~~~~-|-->Liks
G|---------------------------------------|
D|---------------------------------------|
A|-6-6-6-6-1-1-1-1---------3-------------|Abafado
E|-----------------4-4-4-4---------------|

                           P

E|----------------------------------|-
B|-------------------8-9-8----------|-->Liks
G|-------------------------8~~~~----|-
D|-------------------------5///-----|
A|-6-6-6-6-1-1-1-1---------3///-----|Abafado
E|-----------------4-4-4-4----------|

                           P

Eb5                 Bb5                 G#
Um dia na praia a gente jurou ficar junto pra sempre
        C5 - Bb5       Eb5                      Bb5
Depois tudo mudou eram portas abertas que depois se fecharam
    G#               C5  -  Bb5       Eb              Bb
O tempo passou e as coisas mudaram  separaram a gente
    G#               Cm  - Bb
As circunstâncias e as coisas
Eb     Bb    G#    Cm  - Bb
(Circunstâncias e as coisas)

Refrão
            C5
Então vamos viver
   Bb5             G#5         Eb5
Um dia a gente se encontra (4x)

Intro

Eb5                 Bb5                 G#         C5 - Bb5
Ruas desertas, conflitos internos, vivendo um sonho que não é só meu
Eb5                 Bb5                 G#         C5 - Bb5
Saudade de casa, que grande ironia, meu tempo agora não é mais só meu
Eb              Bb    G#               Cm  - Bb
E você não entende, a ação do tempo e as coisas
Eb     Bb    G#    Cm  - Bb (Pausa)
(Circunstâncias e as coisas)

Refrão

Canto 3
A liberdade é essencial pra mim, felicidade é essencial pra mim

Se quem eu amo tem amor por mim, eu sei que ainda estamos longe do fim

(Pausa)

Refrão (Várias Vezes)
  • 1
  • 2
  • 3
  • 4
  • 5
  • 6
  • 7
  • 8
  • 9
  • 10
  • 11
  • 12
    Acordes para:

      0 comentários

        mostrar mais comentários

        Conseguiu tocar?

        15tocaram1ainda não

        Grave um vídeo tocando Um Dia a Gente Se Encontra e mande pra gente!

        00:00 / 00:00
        outros vídeos desta música
        repetirqualidadeautomática
        • automática
        Outro vídeos desta música
          00:00 / 00:00
          automática
          • automática
          Acordes para:violão e guitarra
          dificuldadeexibiçõescontribuições
          2 versões de Guitar Proformatodownloadscontribuição
          fecharplay/pause subir/descer velocidade
            acordes
            fechar
            OK
            Feedback