Cifra Club

Aprenda

A urgência

Dead Fish

Tab de baixo: Versão 2
INTRO - 2x
G|----------------------------------
D|----------------------------------
A|-5-------5------2-2--5-----5------
E|---2-2-----2-2---------3-3---2-2--

INTRO 2 - 2x
G|----------------------------------
D|----------------------------------
A|---------5-5-5-5------------------
E|-2-2-2-2---------5-5-5-5-0-0-0-0--

VERSO
G|---------------------------------------------------------------------
D|---------------------------------------------------------------------
A|-----------------------------5-5-5-5-------------------------7-7-7-7-
E|-2-2-2-2-2-2-2-2-2-5-5-5-5-5---------2-2-2-2-2-2-2-2-5-5-5-5---------

REFRÃO
G|-------------------------------------------------
D|-------------------------------------------------
A|-5-5-5-5-5-5-7-7-7-7-7-7-4-4-4-4-4-4-------------
E|-------------------------------------2-2-2-2-2-2-

PÓS-REFRÃO
G|---------------------------------
D|---------------------------------
A|-5-5-5-5-5-5-5-5-7-7-7-7-7-x-x-x-
E|---------------------------------

FINAL
G|------------------------------------------|---
D|------------------------------------------|---
A|--------------------------------5-5-5-5-5-|-5-
E|-2-2-2-2-2--2-2-2-2-2-5-5-5-5-5-----------|---

Valeu Muito HxCx P/Vcs Ass:Hewerson Baixista Da Banda Ant Opressão  
E-mail:Hewerson_MioloZero@yahoo.com.br,,Fuiii!!!!!
Composição de Dead Fish
Colaboração e revisão:
  • Hewerson Alves
2.957 exibições

0 comentários

Ver todos os comentários

Conseguiu tocar?

0 Tocaram 0 Ainda não

Grave um vídeo tocando A urgência e nos envie!

00:00 / 00:00
outros vídeos desta música
repetir qualidade Automático
Outros vídeos desta música
00:00 / 00:00
Automático

Cifra Club Pro

Aproveite o Cifra Club com benefícios exclusivos e sem anúncios
Cifra Club Pro
Aproveite o Cifra Club com benefícios exclusivos e sem anúncios
OK