Cifra Club

Aprenda

A urgência

Dead Fish

Tab de baixo: Versão 3
P/ quem não tem um baixo com a quinta corda!

INTRO - 2x
G|----------------------------------|
D|----------------------------------|
A|----------------2-2---------------|
D|-0-4-4---0-4-4-------0-5-5-0-4-4--|

INTRO 2 - 2x
G|----------------------------------|
D|----------------------------------|
A|----------------------------------|
D|-4-4-4-4-0-0-0-0-7-7-7-7-2-2-2-2--|


VERSE
G|---------------------------------------------------------------------|
D|---------------------------------------------------------------------|
A|---------------------------------------------------------------------|
D|-4-4-4-4-4-4-4-4-4-7-7-7-7-7-0-0-0-0-4-4-4-4-4-4-4-4-7-7-7-7-2-2-2-2-|

CHORUS
G|-------------------------------------------------|
D|-------------------------------------------------|
A|-------------------------4-4-4-4-4-4-------------|
D|-0-0-0-0-0-0-2-2-2-2-2-2-------------4-4-4-4-4-4-|

AFTER CHORUS
G|---------------------------------|
D|---------------------------------|
A|---------------------------------|
D|---------------------------------|
B|-0-0-0-0-0-0-0-0-2-2-2-2-2-x-x-x-|

ENDING
G|------------------------------------------|---|
D|------------------------------------------|---|
A|------------------------------------------|---|
D|-4-4-4-4-4--4-4-4-4-4-7-7-7-7-7-0-0-0-0-0-|-0-|
Composição de Dead Fish
Colaboração e revisão:
  • raphael barreto
188 exibições

0 comentários

Ver todos os comentários

Conseguiu tocar?

0 Tocaram 0 Ainda não

Grave um vídeo tocando A urgência e nos envie!

00:00 / 00:00
outros vídeos desta música
repetir qualidade Automático
Outros vídeos desta música
00:00 / 00:00
Automático

Cifra Club Pro

Aproveite o Cifra Club com benefícios exclusivos e sem anúncios
Cifra Club Pro
Aproveite o Cifra Club com benefícios exclusivos e sem anúncios
OK