Cifra Club

Aprenda

Overture 1928

Dream Theater

Tab de bateria: Principal
Album: Metropolis Pt. 2: Scenes from a Memory
Drummer: Mike Portnoy
Originally transcribed by: Daniel Rodrigues de Abreu
Edited (and put into an easier to read format) by: Dean Christesen
Key:
H   |x  = closed hi-hat
H   |s  = partially open hi-hat
H   |X  = open hi-hat
R   |x  = ride
R   |b  = bell of ride
C   |x  = crash strike
C   |s  = splash cymbal
C   |c  = china cymbal
C   |1  = Max Stax Number 1
C   |2  = Max Stax Number 2
t   |o  = timbalito
t2  |o  = octoban
T   |o  = Tom 1
T   |x  = Play on rim of tom
T2  |o  = Tom 2
S   |o  = snare drum
S   |d  = double bounce (any drum)
T3  |o  = Tom 3
T4  |o  = Tom 4
F   |o  = Floor tom 1
F2  |o  = Floor tom 2 (gong bass)
B   |o  = Bass drum 1
B   |d  = two consecutive 32nd notes (use both BD's)
B2  |o  = Bass drum 2
Hf  |x  = Hi-hat w/ foot

BMP = 110
    |------Play 9x-------|   2/4
S   |oooo---ooooooo-oooo-|oooo-----|
B   |o----o----o----o----|o--------|
Hf  |--------------------|-----x---|
    (1tl+ 2 +tl3tl+ 4tl+ |1tl+ 2 + )
           4/4
    |-----Play 4x----|-----Play 3x----|
C   |x---x---x---x---|x-1-x-1-x---x-1-|x-1-x-1-x---x---|
S   |----o-------o---|----o-------o---|----o-------o-oo|
B   |o-------o--d--o-|o-------o--d--o-|o-------o--d----|
    (1 + 2 + 3 + 4 + |1 + 2 + 3 + 4 + |1 + 2 + 3 + 4 + )
                      ________________
0:45                 |1. &  3.        |
C   |x---------------|x---------------|
T1  |---o-----o------|----------------|
T2  |----o-----------|---o------------|
T3  |------o-o---o---|----o----o------|
T4  |----------------|------o-o---o---|
S   |--------------F-|--------------F-|
B   |o---o---o---o---|o---o---o---o---|
    (1 + 2 + 3 + 4 + |1 + 2 + 3 + 4 + )
     ________________________________ ________________
    |2.                              |4.              |
C   |x-------------------------------|x---------------|
T1  |--------------------ooo---------|----------------|
T2  |-----------------------o-o------|---o------------|
T3  |------o---------------------o-o-|----o-----------|
T4  |--------o---o---o---------------|------o-------oo|
S   |--------------------------------|--------F---F---|
B   |o-------o-------o-------o-------|o---o---o--d----|
    (1   +   2   +   3   +   4   +   |1 + 2 + 3 + 4 + )
         3/4
C   |1---1---1---|1---1---1---|x---1---1----|1---1---1-----|
S   |----o-------|----o---o-oo|----o--------|----o----ooooo|
B   |o--o--o-o-o-|o-o----d----|o--o--o-o-o--|o-o-----o-----|
B2  |---------o--|-o-o--------|---------o-o-|-o-o----------|
    (1 + 2 + 3 + |1 + 2 + 3 + |1 + 2 + 3tl+ |1 + 2 + 3tl+tl)

C   |1---1---1---|1---1---1---|x---1---1----|
S   |----o-------|----o---o-oo|----o--------|
B   |o-o---o-o-o-|o-o----d----|o--o--o-o-o--|
B2  |-o-o-----o--|-o-o--------|---------o-o-|
    (1 + 2 + 3 + |1 + 2 + 3 + |1 + 2 + 3tl+ )

C   |1---1---s--s-----x---|
T1  |--------------o------|
T2  |---------------o-----|
T3  |----------------o----|
S   |----o----o--o--------|
B   |o-o----oo--o-----o---|
B2  |-o-o-----------------|
    (1 + 2 + 3 + 4 +tl5 + )

S   |oooo---ooooooo-oooo-|
Hf  |x----x----x----x----|
    (1tl+ 2 +tl3tl+ 4tl+ )

KEYBOARD SOLO        |----Play 2x-----|                |-----Play 3x----|
C   |x---------------|x---------------|x---------------|x---------------|
H   |----X---X---X---|----X---X---X---|----X---X---X---|----X---X---X---|
S   |----o---o---o---|o---o---o---o---|o---o---o---o---|o---o---o---o---|
B   |o--o---o---o--o-|---o--o---o--o-o|---o--o---o--o-o|---o--o---o--o-o|
B2  |---------------o|-------o---o----|-------o---o--o-|-------o---o----|
    (1 + 2 + 3 + 4 + |1 + 2 + 3 + 4 + |1 + 2 + 3 + 4 + |1 + 2 + 3 + 4 + )

C   |x-------x--x--x-|
H   |----X-----------|
S   |o---o-oo--------|
B   |---o----o--o--o-|
    (1 + 2 + 3 + 4 + )

"METROPOLIS PART 1"/"HOME" CHORUS (GUITAR MELODY)
1:35                 |-----Play 2x----|
C   |x---------------|----------------|--------------xx|x---------------|
R   |----b---b---b---|b---b---b---b---|b---b---b-------|----b---b---b---|
S   |--------o------o|--------o------o|--------o-oooo--|--------o------o|
B   |o-----o---------|o-o---o-------g-|o-o---o-------o-|o-----o-------g-|
B2  |----------------|----------------|-------o-------o|----------------|
    (1 + 2 + 3 + 4 + |1 + 2 + 3 + 4 + |1 + 2 + 3 + 4 + |1 + 2 + 3 + 4 + )

C   |----------------|----------------|x---------------|
R   |b---b---b---b---|b---b---b-b-b-b-|----------------|
T3  |----------------|----------------|----o-----------|
T4  |----------------|----------------|------o---------|
S   |--------o------o|--------o-------|o-------o---o---|
B   |o-o---o-------g-|o-o---o--------d|----o-o----d--o-|
    (1 + 2 + 3 + 4 + |1 + 2 + 3 + 4 + |1 + 2 + 3 + 4 + )

"ONE LAST TIME" BRIDGE (GUITAR MELODY) (7/8 & 9/8)
                    ______________ __________________
                   |1.            |2.                |         
C   |x---x---x---x-|--x---x---x---|--x---x---x---x---|
S   |----o--o------|o-----o---o---|o-----o---o-------|
B   |o-------o--o-o|----o----d--o-|----o----d--o-o---|
B2  |--------------|-----o--------|-----o------------|
    (1+2+3+4+5+6+7+|1+2+3+4+5+6+7+|1+2+3+4+5+6+7+8+9+)
                    ______________ __________________
                   |1.            |2.                |
C   |x---x---x---x-|--x---x---x---|--x---x-------x---|
S   |----o--o------|o-----o---o---|o-----o---oooo----|
B   |o----------o-o|----o----d--o-|----o----d----o---|
B2  |--------------|-----o--------|-----o------------|
    (1+2+3+4+5+6+7+|1+2+3+4+5+6+7+|1+2+3+4+5+6+7+8+9+)

"STRANGE DEJA VU" CHORUS 2  (KEYBOARD MELODY)
                     |-----Play 2x----|
C   |x---------------|----------------|--------c--c-x-x-|
H   |----X-X-X-X-X-X-|X-X-X-X-X-X-X-X-|X-X-X-X----------|
S   |----o-------o---|----o-------o---|----o------o---o-|
B   |o--o--o--o-o--o-|o--o--o--o-o--o-|o--o--o-o-o--o---|
B2  |----------------|----------------|---------o----o--|
    (1 + 2 + 3 + 4 + |1 + 2 + 3 + 4 + |1 + 2 + 3tl+ 4 + )

C   |x---------------|----------------|----------------|----------------|
H   |----X-X-X-X-X-X-|X-X-X-X-X-X-X---|X-X-X-X-X-X-X-X-|X-X-X-X-X-X-X---|
S   |----o-------o---|----o-------o-oo|----o-------o---|----o----o--o-oo|
B   |o--o--o--o-o--o-|o--o--o--o-o-o--|o--o--o--o-o--o-|o--o--o---oo----|
    (1 + 2 + 3 + 4 + |1 + 2 + 3 + 4 + |1 + 2 + 3 + 4 + |1 + 2 + 3 + 4 + )

"ONE LAST TIME" VERSE (GUITAR MELODY)
                      ________________ ________________
                     |1.              |2.              |
C   |x---------------|----------------|--------------x-|
R   |----b-b-b-b-b-b-|b-b-b-b-b-b-b---|b-b-b-b---------|
H   |---------------X|----------------|----------------|
T4  |----------------|--------------oo|----------------|
S   |----o-------o---|----o-------o---|----o---odooo---|
B   |o--o--o---oo----|o-oo--o---oo----|o--o--o------oo-|
Hf  |----------------|x---------------|----------------|
    (1 + 2 + 3 + 4 + |1 + 2 + 3 + 4 + |1 + 2 + 3 + 4 + )
     ________________
    |3.              |
C   |----------------|----------------|x-------x-------|
R   |b-b-b-b-b-b-b-b-|b-b-b-b-b-b-b-b-|----b-b---------|
H   |---------------X|----------------|----------------|
T3  |----------------|----------------|--------------o-|
S   |----o-------o---|----o-------o--o|----o-----oooo--|
B   |o--o--o---oo----|o--o--o---oo----|o--o--o-o-------|
Hf  |----------------|x---------------|----------------|
    (1 + 2 + 3 + 4 + |1 + 2 + 3 + 4 + |1 + 2 + 3 + 4 + )

BRIDGE (GUITAR & KEYBOARD) (4/4, 3/4, 5/4, & 6/4)
C   |x-----x-----c---|x----------x|---x--------x---|x----------x|
R   |--x-x---x-x-----|------------|----------------|------------|
H   |----------------|----X---X---|--------X-------|----X---X---|
S   |----o----o--o-oo|----o---o---|o---o---o---o---|o---o---o---|
B   |o--o--o---oo----|o--o---o---o|---o---o---o---o|---o---o---o|
    (1 + 2 + 3 + 4 + |1 + 2 + 3 + |1 + 2 + 3 + 4 + |1 + 2 + 3 + )

C   |---x--------x---x-x-|----------------|---------------x--------|
H   |--------X-----------|-----------X----|------------------------|
S   |o---o---o---o---o---|oo--o-o-o-o--ooo|-oooooooooooooo---------|
B   |---o---o---o---o--o-|--o--o-o-o------|---------------o--------|
B2  |--------------------|---o------------|------------------------|
Hf  |--------------------|------------x---|------------------------|
    (1 + 2 + 3 + 4 + 5 + |1 + 2 + 3 + 4 + |1 + 2 + 3 + 4 + 5 + 6 + )

"METROPOLIS PART 1" BRIDGE (GUITAR MELODY)  (4/4 & 7/8)
C   |x---------------|x---c---1-----|x---------------|x---c---1-----|
R   |---b-b-b-bb-b---|--b---b-------|---b-b-b-bb-b---|--b---b-------|
T3  |----------------|--------------|--------------oo|--------------|
T4  |--------------oo|--------------|----------------|--------------|
S   |---o--------o---|----o-----oo-o|---o--------o---|----------oo-o|
B   |o-o--o-o-oo-----|o-o-o-o-o-----|o-o--o-o-oo-----|o-o-o-o-o-----|
B2  |----------------|-o-o-o-o-o----|----------------|-o-o-o-o-o----|
    (1 + 2 + 3 + 4 + |1+2+3+4+5+6+7+|1 + 2 + 3 + 4 + |1+2+3+4+5+6+7+)

C   |c---c---c-----| 
S   |----o-----oo--|
B   |o-o-o-o-o-----|
B2  |-o-o-o-o-o----|
    (1+2+3+4+5+6+7+)

"STRANGE DEJA VU" VERSE (KEYBOARD MELODY)  (4/4)
C   |x---------------|----------------|x---x-----------|
H   |----X---X---X---|X---X---X---X---|--------X---X---|
t   |----------------|--------------oo|----------------|
S   |----o-------o---|----o----o--o---|----o-------o---|
B   |o-o-o-o-o-o-o-o-|o-o-o-o-o-o-o-o-|o-o-o-o-o-o-o-o-|
B2  |-o-o-o-o-o-o-o-o|-o-o-o-o-o-o-o-o|-o-o-o-o-o-o-o-o|
    (1 + 2 + 3 + 4 + |1 + 2 + 3 + 4 + |1 + 2 + 3 + 4 + )

C   |--------------222222|
H   |X---X---------------|
t   |--------------------|
S   |----o---oooooo------|
B   |o-o-o-o-o-o-o-o-o-o-|
B2  |-o-o-o-o-o-o-o-o-o-o|
    (1 + 2 + 3tl+tl4tl+tl)

3:16
C   |x---------------|------------x---|x---x-----------|--------------x-|
H   |----X---X---X---|X---X---X-------|--------X---X---|----------------|
t   |----------------|--------------oo|----------------|----------------|
T1  |----------------|----------------|----------------|--d-------------|
T2  |----------------|----------------|----------------|----d---d-------|
T3  |----------------|----------------|----------------|------d---d-----|
T4  |----------------|----------------|----------------|------------d---|
S   |----o-------o---|----o----o--o---|----o-------o---|d-------------o-|
B   |o-o-o-o-o-o-o-o-|o-o-o-o-o-o-o-o-|o-o-o-o-o-o-o-o-|-d-d-d-d-d-d-d--|
B2  |-o-o-o-o-o-o-o-o|-o-o-o-o-o-o-o-o|-o-o-o-o-o-o-o-o|----------------|
    (1 + 2 + 3 + 4 + |1 + 2 + 3 + 4 + |1 + 2 + 3 + 4 + |1 + 2 + 3 + 4 + )

"STRANGE DEJA VU" BRIDGE (GUITAR CHORDS)
C   |x---------------|----------2---2-|x---------------|x---------------|
R   |----------------|----------------|----------------|--------------b-|
H   |----X---X---X---|X---X---X---X---|----X---X---X---|----X---X---X---|
S   |----o---o---o---|o---o---o---o---|o---o---o---o---|o---o---o---o---|
B   |o-o-o-o-o-o-o-o-|o-o-o-o-o-o-o-o-|o-o-o-o-o-o-o-o-|o-o-o-o-o-o-----|
B2  |-o-o-o-o-o-o-o-o|-o-o-o-o-o-o-o-o|-o-o-o-o-o-o-o-o|-o-o-o-o-o-o----|
    (1 + 2 + 3 + 4 + |1 + 2 + 3 + 4 + |1 + 2 + 3 + 4 + |1 + 2 + 3 + 4 + )

S   |oooo--oooo--ooo-|--oooo----------|
    (1 + 2 + 3 + 4 + |1 + 2 + 3 + 4 + )





Composição de Dream Theater
Colaboração e revisão:
  • Eduardo Lyvio
704 exibições

0 comentários

Ver todos os comentários
00:00 / 00:00
outros vídeos desta música
repetir qualidade Automático
Outros vídeos desta música
00:00 / 00:00
Automático

Cifra Club Pro

Aproveite o Cifra Club com benefícios exclusivos e sem anúncios
Cifra Club Pro
Aproveite o Cifra Club com benefícios exclusivos e sem anúncios
OK