Cifra Club

Madagascar

Guns N' Roses

Tab de baixo: Principal
oK, There's not really this bass intro to Madagascar, but it's really cool and I decided to figure it out.
Here it is:

G|------------------|----|------------------|
D|------------------|----|---------------7--|
A|-5-5-5--79--9--55-|-74-|-5-5-5--79--9---5-|
E|------------------|----|------------------|

G|----|------------------|----|------------------|
D|----|------------------|----|---------------7--|
A|-74-|-5-5-5--79--9--55-|-74-|-5-5-5--79--9---5-|
E|----|------------------|----|------------------|

G|----------------------|
D|----------------------|
A|-74--5--44--20--4--52-|
E|----------------------|


_______________________________________________________
Contribuição: luiz eduardo saragozo de freitas(luizeduardosf@bol.com.br)
exibições 5.723
Composição: Axl Rose / Chris Pitman

0 comentários

mostrar mais comentários

Conseguiu tocar?

0 tocaram 0 ainda não

Grave um vídeo tocando Madagascar e mande pra gente!

00:00 / 00:00
outros vídeos desta música
repetir qualidade Automático
Outros vídeos desta música
00:00 / 00:00
Automático
OK