Cifra Club

Wild Horses

Guns N' Roses

Cifra: Principal
exibições 103.495
Tom: G
     G                  Am                    G            Am                      G
E |-3----3--------3----0--0-0--0--0-0--0-----3-3-----3----0-0-0-0-------------------|
B |-3--3--3-------3----1--1-1--1--1-1--1-----3-3-3---3----1-1-1-1-------------------|
G |-0--0---0------0----2--2-2--2--2-2--2-----0-0-0---0----2-2-2-2---2/4--2--0--2----|
D |-0--0----0-----0----2--2-2--2--2-2--2-----0-0-0---0----2-2-2-2-------------------|
A |-2--------2----2----0--0-0--0--0-0--0-----2-2-----2----0-0-0-0-------------------|
E |-3---------3-3---3------------------------3-----3---3--------------------------3-|

D G          F        C   Am7/B
   Couldn't drag me away,
Am             C
   Wild, wild horses,
D G          F        C
   Couldn't drag me away...

(2x)
E |--10-10-10--10-10-10\8-7-|
B |--10-10-10--10-10-10\8-8-|
G |-------------------------|
D |-------------------------|
A |-------------------------|
E |-------------------------|

E |-------------------10-------------------------------------
B |-(10)b12r10p8-10b12---(10)b12r10-8--8-10-8--(10)b12r10p8--
G |-----------------------------------9----------------------
D |----------------------------------------------------------
A |----------------------------------------------------------
E |----------------------------------------------------------

E |-10-------10------------------------10------10------------
B |----10b12---(10)b12r10p8---10-10/12---10b12----(10)b12r10-
G |-------------------------9--------------------------------
D |----------------------------------------------------------
A |----------------------------------------------------------
E |----------------------------------------------------------

E |----8p7-8p7-8p7-------------------------------------------
B |-10-------------8--------------8-(10)b12r10p8-10/12-13p12-
G |------------------7h9-9----7h9----------------------------
D |------------------------8h9-------------------------------
A |----------------------------------------------------------
E |----------------------------------------------------------

E |----------------------------------------------15----------
B |-13p12-13p12-12-12-12\10-10-10--17b19-(17)b19----15b17r15-
G |----------------------------------------------------------
D |----------------------------------------------------------
A |----------------------------------------------------------
E |----------------------------------------------------------

E |-------------------------------------------------------------
B |-13h15---------------------------15------15---------15-------
G |-------14b15r14-14-12---12h14p12---14b16----(14)b16---(14)b16
D |---------------------14--------------------------------------
A |-------------------------------------------------------------
E |-------------------------------------------------------------

E |--------------------------------------------------15-----15-
B |-15--------15---------------------------------------15b17---
G |---(14)b16----(14)b16r14p12---12-12--12-14-12-12------------
D |----------------------------14-----14-----------------------
A |------------------------------------------------------------
E |------------------------------------------------------------

E |-----------------------------------------------------------
B |-(15)b17~-(15)b17r15--13p12-13p12---------------------15---
G |----------------------------------12----------12-14b16-----
D |-------------------------------------12h14-14--------------
A |-----------------------------------------------------------
E |-----------------------------------------------------------

E |------------------------------------------------------------
B |---------15---------------------15--15--15--15-15-----------
G |-(14)b16----(14)b16r14-12-14/16---16--16--16------16p14-14--
D |------------------------------------------------------------
A |------------------------------------------------------------
E |------------------------------------------------------------

E |-----------------------------------------------------------
B |----------------------------------15--15-------------------
G |-14~-14~~-------------12-14-14/16---16--16-16-14-14~--14---
D |----------------12h14--------------------------------------
A |----------13h14--------------------------------------------
E |-----------------------------------------------------------

E |------------------------------------------10-
B |-17-17-17-15-15\13-13\12-12\10-10\8-10/12----
G |---------------------------------------------
D |---------------------------------------------
A |---------------------------------------------
E |---------------------------------------------...
Acordes para:
    Composição: Bill Shore / David Wills / Keith Richards / Mick JaggerColaboração e revisão:
    • Marcos Saavedra

    0 comentários

      mostrar mais comentários

      Conseguiu tocar?

      9tocaram1ainda não

      Grave um vídeo tocando Wild Horses e mande pra gente!

      00:00 / 00:00
      outros vídeos desta música
      repetirqualidadeautomática
      Outro vídeos desta música
        00:00 / 00:00
        automática
        OK