Notificações Amigos pendentes

      Legião Urbana

      Fábrica

      262.095 exibições
      Tom: G
      Intro Teclado (Versão Ao Vivo As Quatro Estações - TOM: C# - original)
      
      
      E|----------------------------------------------|
      B|---7---10---9---7---3---5---2-----9---14------|
      G|----------------------------------------------|(esse arranjo acompanha a
      D|----------------------------------------------| introdução da guitarra)
      A|----------------------------------------------|
      E|----------------------------------------------|
      
      
      
      
      Intro Guitarra:
      
      
      E|----------------------------------------------|
      B|--------------------10------------------------|
      G|--------------------10------------------------|(repete isso várias vezes
      D|--------------------10------------------------| até começar a música)
      A|------------------------------------------x---|
      E|-10-10-10-10-8 -10-----10-10-10-10-13-10--x---|
      
      
       (D G D G)
      
      Riff 1 (Faça esse riff no lugar do acorde 'D')
      
              D
      E|------5--------5-----5------|
      B|----7-----7------7-----7----|
      G|-7------7----7-----7-----7--|
      D|----------------------------|
      A|----------------------------|
      E|----------------------------|
      
      
      Riff 1
       D      G           D    G             D
       Nosso dia vai chegar, teremos nossa vez
           G          D       G
       Não é pedir demais quero justiça
      
       C           Bm
       Quero trabalhar em paz
       Am           G
       Não é muito o que lhe peço
       D           C
       Eu quero trabalho honesto
          Em             A7
       Em vez de escravidão
      
      Riff 1
       D       G         D       G
       Deve haver algum lugar onde o mais forte
       D      G            D         G
       Não consegue escravizar quem não tem chance
      
      
      D      A       F#m   A
       De onde vem a indiferença
       G    Bm    Em      A
       Temperada a ferro e fogo?
      D A    F#m       A       G  Bm        Em A
        Quem guarda os portões da fábrica?
      
         D       G        D     G
       O céu já foi azul, mas agora é cinza
       D                     G         D     G
       E o que era verde aqui já não existe mais
      C             Bm
       Quem me dera acreditar
       Am          G        D             C
       Que não acontece nada de tanto brincar com fogo
           Em              A7
       Que venha o fogo então
      
      Solo:
      
      E|-----------------------|
      B|-4-4-4-2--4-4-4-2--4-2-|
      G|-----------------------|(9x)
      D|-----------------------|
      A|-----------------------|
      E|-----------------------|
      
      
      
      Riff 2
      
              D                                            G          Bm
      E|-3/5-5--3-3-3/5-5--3-3-3/5-5--3-3-3/5-5--3-3-----------------------|
      B|-5/7-7--5-5-5/7-7--5-5-5/7-7--5-5-5/7-7--5-5--8-8-8-8-8--7-7-7-7-7-|
      G|----------------------------------------------7-7-7-7-7--7-7-7-7-7-|
      D|----------------------------------------------9-9-9-9-9--9-9-9-9-9-|
      A|-------------------------------------------------------------------|
      E|-------------------------------------------------------------------|
      
      
              Em         A
      E|----------------------|
      B|-8-8-8-8-8--5-5-5-5-5-|
      G|-9-9-9-9-9--6-6-6-6-6-|
      D|-9-9-9-9-9--7-7-7-7-7-|
      A|----------------------|
      E|----------------------|
      
      
      
      Riff 2
       D   A    F#m        A      G   Bm  Em
       Esse ar deixou minha vista cansada
       A     D   A F#m A
       Nada demais
               G   Bm  Em A
       Nada demais
      
      
      Tab de teclado add por: Bruno Legionários-BH.
        Composição: Renato RussoColaboração e revisão:
        • brunolegionario
        • Ross
        • Agnaldo
        • Edilson
        • +4

        Comentários 12

        140 .
        • Pedro Henrique Pedro Henrique: Em 15/11/2013 22:59

          No refrão como eu faço????

        • Fabricio Fabricio: Em 18/10/2013 21:49

          EU ACHO QUE NESTA CIRA FALTAM DUAS NOTAS ..EM UM REFRÃO.: E O QUE ERA VERDE AQUI JÁ NÃO EXISTE MAIS ... D-RÉ G-SOL AÍ VEM D-RÉ E G-

        • brunowd brunowd: Em 23/09/2013 14:22

          amoooooooooooo legião!!

        • carlosmax carlosmax: Em 09/11/2012 08:31

          A melhor do Legião. Revolucionária. Legião até o terceiro disco era rock n roll. Depois ficou muito depressiva.

          • antonio antonio: Em 27/09/2016 - 14:47

            Realmente, Carlos.

        • lounge lounge: Em 26/08/2012 13:36

          qual o ritmo?

        • angriinha angriinha: Em 25/10/2011 22:29

          Video aula pfpf ý.ý

        • luizdoviolao luizdoviolao: Em 06/09/2011 13:44

          UMA DAS MELHORES EM MINHA OPINIÃO

        140 cancelar

        conseguiu tocar?

        • •••

        covers

        Grave um vídeo tocando Fábrica e mande pra gente!

        Ex.: http://www.youtube.com/watch?v=0IvSvIwGdwk
        ver covers de outras músicas »
        0:00 / 0:00

        Capítulos

          1 versão de baixo exibições contribuição e correção
          play/pausefechar subir/descer velocidade
          6ª corda E5ª corda A4ª corda D3ª corda G2ª corda B1ª corda E
            acordes
            publicidade
            fechar
            ok