Cifra Club

A Place For My Head

Linkin Park

Tab de baixo: Principal
exibições 15.865
(intro 9x - 4 primeiras são abafadas)

G||---------------------------------------------------------
D||---------8-8-8-9-8--6------------------------------------
A||--6--6-------------------9-9--7-7-7--7--9-7-6-6----------
E||---------------------------------------------------------

(depois com distorção repete 6x até o refrão)

(riff 1)
G||------------------------------------------------------
D||---------8-8-8-9-8--6---------------------------------
A||--6--6-------------------9-9-9-7-7-7--7--9-7-6-6------
E||------------------------------------------------------

(refrão)

    Eb5  Eb5                 F#5  F#5
G||--8--8-------------------------------------
D||--8--8---8-8-8-9-8--6----4--4--2-2-2--2-2-4
A||--6--6-------------------4--4--------------
E||-------------------------2--2--------------

Ou então, com duas guitarras:

(guitarra 1: base -   Eb e F#)
(guitarra 2: fica repetindo o riff1 no refrão também)

(no final da música)

(ficar fazendo)

    Eb5 Eb5 F#5  F#5
G||--8--8----11--11---
D||--8--8----11--11---
A||--6--6----9---9----
E||-------------------
Composição: Linkin ParkColaboração e revisão:
  • otavio henrique

0 comentários

    mostrar mais comentários

    Conseguiu tocar?

    1tocaram0ainda não

    Grave um vídeo tocando A Place For My Head e mande pra gente!

    00:00 / 00:00
    outros vídeos desta música
    repetirqualidadeautomática
    Outro vídeos desta música
      00:00 / 00:00
      automática
      OK