Cifra Club

Shadow Of The Day

Linkin Park

Cifra: Principal
exibições 177.802
Tom: D
(No guitar in first verse)

Chorus - Guitar 1 (Palm-muted)
|-------------------------------------------------------------------------------------------------|
|-------------------------------------------------------------------------------------------------|
|-------------------------------------------------------------------------------------------------|
|-------------------------------------------------------------------------------------------------|
|-------------------------------------------------------------------------------------------------|
|-10-10-10-10-10-10-10-10-12-12-12-12-12-12-12-12-7--7--7--7--7--7--7--7--3--3--3--3--3--5--5--5--|

|-------------------------------------------------------------------------------------------------|
|-------------------------------------------------------------------------------------------------|
|-------------------------------------------------------------------------------------------------|
|-------------------------------------------------------------------------------------------------|
|-------------------------------------------------------------------------------------------------|
|-10-10-10-10-10-10-10-10-12-12-12-12-12-12-12-12-7--7--7--7--7--7--7--7--3--3--3--3--3--5--5--5--|

|-------------------------------------------------------------------------------------------------|
|-------------------------------------------------------------------------------------------------|
|-------------------------------------------------------------------------------------------------|
|-------------------------------------------------------------------------------------------------|
|-------------------------------------------------------------------------------------------------|
|-10-10-10-10-10-10-10-10-5--5--5--5--5--5--5--5--7--7--7--7--7--7--7--7--3--3--3--3--3--5--5--5--|

|-------------------------------------------------------------------------------------------------|
|-------------------------------------------------------------------------------------------------|
|-------------------------------------------------------------------------------------------------|
|-------------------------------------------------------------------------------------------------|
|-------------------------------------------------------------------------------------------------|
|-10-10-10-10-10-10-10-10-12-12-12-12-12-12-12-12-7--7--7--7--7--7--7--7--3--3--3--3--3--5--5--5--|

2nd Verse - Guitar 1 (Palm-muted)
|-------------------------------------------------------------------------------------------------|
|-------------------------------------------------------------------------------------------------|
|-------------------------------------------------------------------------------------------------|
|-------------------------------------------------------------------------------------------------|
|-------------------------------------------------------------------------------------------------|
|-7--7--7--7--7--7--7--7--9--9--9--9--9--9--9--9--3--3--3--3--3--3--3--3--3--3--3--3--3--5--5--5--|

|-------------------------------------------------------------------------------------------------|
|-------------------------------------------------------------------------------------------------|
|-------------------------------------------------------------------------------------------------|
|-------------------------------------------------------------------------------------------------|
|-------------------------------------------------------------------------------------------------|
|-7--7--7--7--7--7--7--7--9--9--9--9--9--9--9--9--3--3--3--3--3--3--3--3--3--3--3--3--3--5--5--5--|

|-------------------------------------------------------------------------------------------------|
|-------------------------------------------------------------------------------------------------|
|-------------------------------------------------------------------------------------------------|
|-------------------------------------------------------------------------------------------------|
|-------------------------------------------------------------------------------------------------|
|-7--7--7--7--7--7--7--7--9--9--9--9--9--9--9--9--3--3--3--3--3--3--3--3--3--3--3--3--3--5--5--5--|

|-------------------------------------------------------------------------------------------------|
|-------------------------------------------------------------------------------------------------|
|-------------------------------------------------------------------------------------------------|
|-------------------------------------------------------------------------------------------------|
|-------------------------------------------------------------------------------------------------|
|-7--7--7--7--7--7--7--7--9--9--9--9--9--9--9--9--3--3--3--3--3--3--3--3--3--3--3--3--3--5--5--5--|

|-------------------------------------------------------------------------------------------------|
|-------------------------------------------------------------------------------------------------|
|-------------------------------------------------------------------------------------------------|
|-------------------------------------------------------------------------------------------------|
|-------------------------------------------------------------------------------------------------|
|-7--7--7--7--7--7--7--7--9--9--9--9--9--9--9--9--3--3--3--3--3--3--3--3--3--3--3--3--3--5--5--5--|

Chorus - Guitar 1 (Palm-muted)
|-------------------------------------------------------------------------------------------------|
|-------------------------------------------------------------------------------------------------|
|-------------------------------------------------------------------------------------------------|
|-------------------------------------------------------------------------------------------------|
|-------------------------------------------------------------------------------------------------|
|-10-10-10-10-10-10-10-10-12-12-12-12-12-12-12-12-7--7--7--7--7--7--7--7--3--3--3--3--3--5--5--5--|

|-------------------------------------------------------------------------------------------------|
|-------------------------------------------------------------------------------------------------|
|-------------------------------------------------------------------------------------------------|
|-------------------------------------------------------------------------------------------------|
|-------------------------------------------------------------------------------------------------|
|-10-10-10-10-10-10-10-10-12-12-12-12-12-12-12-12-7--7--7--7--7--7--7--7--3--3--3--3--3--5--5--5--|

|-------------------------------------------------------------------------------------------------|
|-------------------------------------------------------------------------------------------------|
|-------------------------------------------------------------------------------------------------|
|-------------------------------------------------------------------------------------------------|
|-------------------------------------------------------------------------------------------------|
|-10-10-10-10-10-10-10-10-5--5--5--5--5--5--5--5--7--7--7--7--7--7--7--7--3--3--3--3--3--5--5--5--|

|-------------------------------------------------------------------------------------------------|
|-------------------------------------------------------------------------------------------------|
|-------------------------------------------------------------------------------------------------|
|-------------------------------------------------------------------------------------------------|
|-------------------------------------------------------------------------------------------------|
|-10-10-10-10-10-10-10-10-12-12-12-12-12-12-12-12-7--7--7--7--7--7--7--7--3--3--3--3--3--5--5--5--|
|Guitar 1 (Palm-muted)
|
|-------------------------------------------------------------------------------------------------|
|-------------------------------------------------------------------------------------------------|
|-------------------------------------------------------------------------------------------10----|
|----------------------------------------------------------------------------------------10----10-|
|-------------------------------------------------------------------------------------------------|
|-------------------------------------------------------------------------------------------------|
|Guitar 2

Guitar Solo #1
|-------------------------------------------------------------------------------------------------|
|-------------------------------------------------------------------------------------------------|
|-------------------------------------------------------------------------------------------------|
|-------------------------------------------------------------------------------------------------|
|-------------------------------------------------------------------------------------------------|
|-7--7--7--7--7--7--7--7--9--9--9--9--9--9--9--9--3--3--3--3--3--3--3--3--3--3--3--3--3--5--5--5--|
|Guitar 1 (Palm-muted)
|
|-------------------------------------------------------------------------------------------------|
|-------------------------------------13----------------------------------------------13----------|
|-12----12----12----12----12----10----------10----12----12----12----12----12----10----------10----|
|----10----10----10----10----10----10----10----10----10----10----10----10----10----10----10----10-|
|-------------------------------------------------------------------------------------------------|
|-------------------------------------------------------------------------------------------------|
|Guitar 2

|-------------------------------------------------------------------------------------------------|
|-------------------------------------------------------------------------------------------------|
|-------------------------------------------------------------------------------------------------|
|-------------------------------------------------------------------------------------------------|
|-------------------------------------------------------------------------------------------------|
|-7--7--7--7--7--7--7--7--9--9--9--9--9--9--9--9--3--3--3--3--3--3--3--3--3--3--3--3--3--5--5--5--|
|Guitar 1 (Palm-muted)
|
|-------------------------------------------------------------------------------------------------|
|-------------------------------------13----------------------------------------------------------|
|-12----12----12----12----12----10----------10----10----10----9-----9-----9-----9-----9-----10----|
|----10----10----10----10----10----10----10----10----10----10----10----10----10----10----10----10-|
|-------------------------------------------------------------------------------------------------|
|-------------------------------------------------------------------------------------------------|
|Guitar 2

Chorus
|-------------------------------------------------------------------------------------------------|
|-------------------------------------------------------------------------------------------------|
|-------------------------------------------------------------------------------------------------|
|-------------------------------------------------------------------------------------------------|
|-------------------------------------------------------------------------------------------------|
|-10-10-10-10-10-10-10-10-5--5--5--5--5--5--5--5--7--7--7--7--7--7--7--7--3--3--3--3--3--3--3--3--|
|Guitar 1 (Palm-muted)
|
|-------------------------------------------------------------------------------------------------|
|-------------------------------------13----------------------------------------------13----------|
|-12----12----12----12----12----10----------10----12----12----12----12----12----10----------10----|
|----10----10----10----10----10----10----10----10----10----10----10----10----10----10----10----10-|
|-------------------------------------------------------------------------------------------------|
|-------------------------------------------------------------------------------------------------|
|Guitar 2

|-------------------------------------------------------------------------------------------------|
|-------------------------------------------------------------------------------------------------|
|-------------------------------------------------------------------------------------------------|
|-------------------------------------------------------------------------------------------------|
|-------------------------------------------------------------------------------------------------|
|-10-10-10-10-10-10-10-10-12-12-12-12-12-12-12-12-7--7--7--7--7--7--7--7--3--3--3--3--3--5--5--5--|
|Guitar 1 (Palm-muted)
|
|-------------------------------------------------------------------------------------------------|
|-------------------------------------13----------------------------------------------13----------|
|-12----12----12----12----12----10----------10----12----12----12----12----12----10----------------|
|----10----10----10----10----10----10----10----10----10----10----10----10----10----10-------------|
|-------------------------------------------------------------------------------------------------|
|-------------------------------------------------------------------------------------------------|
|Guitar 2
|
|-------------------------------------------------------------------------------------------------|
|-------------------------------------------------------------------------------------------18----|
|----------------------------------------------------------------------------------------17----17-|
|-------------------------------------------------------------------------------------------------|
|-------------------------------------------------------------------------------------------------|
|-------------------------------------------------------------------------------------------------|
|Guitar 3
|
|-------------------------------------------------------------------------------------------------|
|-------------------------------------------------------------------------------------------------|
|-------------------------------------------------5~----------------------------------------------|
|-------------------------(fade in w/feedback)----5~----------------------------------------------|
|-------------------------------------------------3~----------------------------------------------|
|-------------------------------------------------------------------------------------------------|
|Guitars 4 and 5

Guitar Solo #2
|-------------------------------------20----------------------------------------------20----------|
|-20----20----20----20----20----18----------18----20----20----20----20----20----18----------18----|
|----17----17----17----17----17----17----17----17----17----17----17----17----17----17----17----17-|
|-------------------------------------------------------------------------------------------------|
|-------------------------------------------------------------------------------------------------|
|-------------------------------------------------------------------------------------------------|
|Guitar 3
|
|-------------------------------------------------------------------------------------------------|
|-------------------------------------------------------------------------------------------------|
|-5--5--5--5--5--5--5--5--------------------------------------------------------------------------|
|-5--5--5--5--5--5--5--5--5--5--5--5--5--5--5--5--7--7--7--7--7--7--7--7--3--3--3--3--3--5--5--5--|
|-3--3--3--3--3--3--3--3--5--5--5--5--5--5--5--5--7--7--7--7--7--7--7--7--3--3--3--3--3--5--5--5--|
|-------------------------5--5--5--5--5--5--5--5--7--7--7--7--7--7--7--7--3--3--3--3--3--5--5--5--|
|Guitars 4 and 5
|
|-------------------------------------------------------------------------------------------------|
|-------------------------------------------------------------------------------------------------|
|-5--5--5--5--5--5--5--5--7--7--7--7--7--7--7--7--9--9--9--9--9--9--9--9--9--9--9--9--9--9--9--9--|
|-x--x--x--x--x--x--x--x--x--x--x--x--x--x--x--x--x--x--x--x--x--x--x--x--x--x--x--x--x--x--x--x--|
|-3--3--3--3--3--3--3--3--5--5--5--5--5--5--5--5--7--7--7--7--7--7--7--7--7--7--7--7--7--7--7--7--|
|-------------------------------------------------------------------------------------------------|
|Guitars 6 and 7

|-------------------------------------20----------------------------------------------20----------|
|-20----20----20----20----20----18----------18----20----20----20----20----20----18----------18----|
|----17----17----17----17----17----17----17----17----17----17----17----17----17----17----17----17-|
|-------------------------------------------------------------------------------------------------|
|-------------------------------------------------------------------------------------------------|
|-------------------------------------------------------------------------------------------------|
|Guitar 3
|
|-------------------------------------------------------------------------------------------------|
|-------------------------------------------------------------------------------------------------|
|-5--5--5--5--5--5--5--5--------------------------------------------------------------------------|
|-5--5--5--5--5--5--5--5--5--5--5--5--5--5--5--5--7--7--7--7--7--7--7--7--3--3--3--3--3--5--5--5--|
|-3--3--3--3--3--3--3--3--5--5--5--5--5--5--5--5--7--7--7--7--7--7--7--7--3--3--3--3--3--5--5--5--|
|-------------------------5--5--5--5--5--5--5--5--7--7--7--7--7--7--7--7--3--3--3--3--3--5--5--5--|
|Guitars 4 and 5
|
|-------------------------------------------------------------------------------------------------|
|-------------------------------------------------------------------------------------------------|
|-5--5--5--5--5--5--5--5--7--7--7--7--7--7--7--7--9--9--9--9--9--9--9--9--9--9--9--9--9--9--9--9--|
|-x--x--x--x--x--x--x--x--x--x--x--x--x--x--x--x--x--x--x--x--x--x--x--x--x--x--x--x--x--x--x--x--|
|-3--3--3--3--3--3--3--3--5--5--5--5--5--5--5--5--7--7--7--7--7--7--7--7--7--7--7--7--7--7--7--7--|
|-------------------------------------------------------------------------------------------------|
|Guitars 6 and 7

Final Chorus
|-------------------------------------20----------------------------------------------20----------|
|-20----20----20----20----20----18----------18----20----20----20----20----20----18----------18----|
|----17----17----17----17----17----17----17----17----17----17----17----17----17----17----17----17-|
|-------------------------------------------------------------------------------------------------|
|-------------------------------------------------------------------------------------------------|
|-------------------------------------------------------------------------------------------------|
|Guitar 3
|
|-------------------------------------------------------------------------------------------------|
|-------------------------------------------------------------------------------------------------|
|-5--5--5--5--5--5--5--5--------------------------------------------------------------------------|
|-5--5--5--5--5--5--5--5--5--5--5--5--5--5--5--5--7--7--7--7--7--7--7--7--3--3--3--3--3--5--5--5--|
|-3--3--3--3--3--3--3--3--5--5--5--5--5--5--5--5--7--7--7--7--7--7--7--7--3--3--3--3--3--5--5--5--|
|-------------------------5--5--5--5--5--5--5--5--7--7--7--7--7--7--7--7--3--3--3--3--3--5--5--5--|
|Guitars 4 and 5
|
|-------------------------------------------------------------------------------------------------|
|-------------------------------------------------------------------------------------------------|
|-5--5--5--5--5--5--5--5--7--7--7--7--7--7--7--7--9--9--9--9--9--9--9--9--10-10-10-10-10-10-10-10-|
|-x--x--x--x--x--x--x--x--x--x--x--x--x--x--x--x--x--x--x--x--x--x--x--x--x--x--x--x--x--x--x--x--|
|-3--3--3--3--3--3--3--3--5--5--5--5--5--5--5--5--7--7--7--7--7--7--7--7--8--8--8--8--8--8--8--8--|
|-------------------------------------------------------------------------------------------------|
|Guitars 6 and 7

|-------------------------------------20----------------------------------------------20----------|
|-20----20----20----20----20----18----------18----20----20----20----20----20----18----------18----|
|----17----17----17----17----17----17----17----17----17----17----17----17----17----17----17----17-|
|-------------------------------------------------------------------------------------------------|
|-------------------------------------------------------------------------------------------------|
|-------------------------------------------------------------------------------------------------|
|Guitar 3
|
|-------------------------------------------------------------------------------------------------|
|-------------------------------------------------------------------------------------------------|
|-5--5--5--5--5--5--5--5--------------------------------------------------------------------------|
|-5--5--5--5--5--5--5--5--5--5--5--5--5--5--5--5--7--7--7--7--7--7--7--7--3--3--3--3--3--5--5--5--|
|-3--3--3--3--3--3--3--3--5--5--5--5--5--5--5--5--7--7--7--7--7--7--7--7--3--3--3--3--3--5--5--5--|
|-------------------------5--5--5--5--5--5--5--5--7--7--7--7--7--7--7--7--3--3--3--3--3--5--5--5--|
|Guitars 4 and 5
|
|-------------------------------------------------------------------------------------------------|
|-------------------------------------------------------------------------------------------------|
|-12-12-12-12-12-12-12-12-7--7--7--7--7--7--7--7--9--9--9--9--9--9--9--9--9--9--9--9--9--9--9--9--|
|-x--x--x--x--x--x--x--x--x--x--x--x--x--x--x--x--x--x--x--x--x--x--x--x--x--x--x--x--x--x--x--x--|
|-10-10-10-10-10-10-10-10-5--5--5--5--5--5--5--5--7--7--7--7--7--7--7--7--7--7--7--7--7--7--7--7--|
|-------------------------------------------------------------------------------------------------|
|Guitars 6 and 7

Ending
|-------------------------------------------------------------------------------------------------|
|-17~---------------------------------------------\-----------------------------------------------|
|-------------------------------------------------------------------------------------------------|
|-------------------------------------------------------------------------------------------------|
|-------------------------------------------------------------------------------------------------|
|-------------------------------------------------------------------------------------------------|
|Guitar 3
|
|-------------------------------------------------------------------------------------------------|
|-------------------------------------------------------------------------------------------------|
|-5~----------------------------------------------------------------------------------------------|
|-5~----------------------------------------------------------------------------------------------|
|-3~----------------------------------------------------------------------------------------------|
|-------------------------------------------------------------------------------------------------|
|Guitars 4 and 5
|
|-------------------------------------------------------------------------------------------------|
|-------------------------------------------------------------------------------------------------|
|-9~----------------------------------------------------------------------------------------------|
|-x-----------------------------------------------------------------------------------------------|
|-7~----------------------------------------------------------------------------------------------|
|-------------------------------------------------------------------------------------------------|
|Guitars 6 and 7
Acordes para:
    Composição: Chester BeningtonColaboração e revisão:

    0 comentários

      mostrar mais comentários

      Conseguiu tocar?

      27tocaram0ainda não

      Grave um vídeo tocando Shadow Of The Day e mande pra gente!

      00:00 / 00:00
      outros vídeos desta música
      repetirqualidadeautomática
      Outro vídeos desta música
        00:00 / 00:00
        automática
        OK