Cifra Club

Burning In The Skies

Linkin Park

Cifra: Principal
exibições 24.328
Tom: G
   Am               C               G                D

E|--------------------------0-------3----------------2--------------|
B|-1-1-1-0---0------1-1-1-3---3-1---3----------------3--------------|
G|-2-------2---2----0---------------0----------------2-----0-2-0-2--|
D|-2----------------2---------------0----------------0-4-4----------|
A|------------------3---------------2-2-2-0---2---------------------|
E|----------------------------------3-------3---3-------------------|

Intro 2x: Am  C  G  D

Am                                     C
 I used the deadwood to make the fire rise
G                                      D
 The blood of innocence burning in the skies
Am                                      C
 I filled my cup with the rising of the sea
G                                   D
 And poured it out in an ocean of debris
 F   D
 Oh, oh

Refrão:
                     Am
 I'm swimming in the smoke
                   G
 Of bridges I have burned
    E          F
 So don't apologize
            C              G
 I'm losing what I don't deserve
 E              Am     C G D
 What I don't deserve

Am                                    C
 We held my breath as clouds began to form
G                                        D
 But you were lost in the beating of the storm
Am                                   C
 But in the end we were meant to be apart
G                                  D
 In separate chambers of the human heart
 F   D
 No, oh

Refrão:
                     Am
 I'm swimming in the smoke
                   G
 Of bridges I have burned
    E          F
 So don't apologize
            C              G
 I'm losing what I don't deserve

      E                Am
 It's in the blackened bones
                   G
 Of bridges I have burned
    E          F
 So don't apologize
            C              G
 I'm losing what I don't deserve
 E              Am     C G D
 What I don't deserve
 
Solo: Am  C  G  D (3x)
      F  D

Refrão:
                     Am
 I'm swimming in the smoke
                   G
 Of bridges I have burned
    E          F
 So don't apologize
            C              G
 I'm losing what I don't deserve

     E              Am
 The blame is mine alone
                   G
 For bridges I have burned
    E          F
 So don't apologize
            C              G
 I'm losing what I don't deserve
 E              Am     G
 What I don't deserve

 E              F      C     G
 What I don't deserve, woah, woah
 E              Am
 What I don't deserve

Am                                         C
 And here's the dead wood to make the fire rise
G                                      D
 The blood of innocence burning in the skies
Solo:
D|--------------------------------------------------------------------|
A|--------------------------------------------------------------------|
F|-15--15--15-15-15--10--10--10-10-10--13--13--13-13-13--12-12--8-8-8-|
C|-x---x---x--x--x---x---x---x--x--x---x---x---x--x--x---x--x---x-x-x-|
G|-13--13--13-13-13--8---8---8--8--8---11--11--11-11-11--10-10--6-6-6-|
C|--------------------------------------------------------------------|

D|----------------------------------------|
A|----------------------------------------|
F|-10--10--10-10-10--13--13--13-13-13--15-|
C|--x---x---x--x--x--x---x---x--x--x---x--|
G|--8---8---8--8--8--11--11--11-11-11--13-|
C|----------------------------------------|

D|------------------------------------|
A|------------------------------------|
F|-13--13--13-13-13--15--13-13--8-8-8-|
C|-x---x---x--x--x---x---x--x---x-x-x-|
G|-11--11--11-11-11--13--11-11--6-6-6-|
C|------------------------------------|

D|------------------------------------------------------------------------|
A|------------------------------------------------------------------------|
F|-15--15--13-13-13--15--15--13-13-13--15--15--13-13-13--15--15--13-13-13-|
C|-x---x---x--x--x---x---x---x--x--x---x---x---x--x--x---x---x---x--x--x--|
G|-13--13--11-11-11--13--13--11-11-11--13--13--11-11-11--13--13--11-11-11-|
C|------------------------------------------------------------------------|

D|-------------------------------------------------|
A|-------------------------------------------------|
F|-15-15-15-15-17-17-17-17-18-18-18-18-20-20-20-20-|
C|-x--x--x--x--x--x--x--x--x--x--x--x--x--x--x--x--|
G|-13-13-13-13-15-15-15-15-16-16-16-16-18-18-18-18-|
C|-------------------------------------------------|
D|-------------------------------------------------|
A|-------------------------------------------------|
F|-15-15-15-15-17-17-17-17-18-18-18-18-20-20-20-20-|
C|-x--x--x--x--x--x--x--x--x--x--x--x--x--x--x--x--|
G|-13-13-13-13-15-15-15-15-16-16-16-16-18-18-18-18-|
C|-------------------------------------------------|
Acordes para:
    Composição: Linkin ParkColaboração e revisão:
    • Danilo Espindola
    • Rafael Barreto
    • Sérgio

    0 comentários

      mostrar mais comentários

      Conseguiu tocar?

      19tocaram0ainda não

      Grave um vídeo tocando Burning In The Skies e mande pra gente!

      00:00 / 00:00
      outros vídeos desta música
      repetirqualidadeautomática
      Outro vídeos desta música
        00:00 / 00:00
        automática
        OK