Cifra Club

Aprenda

Tuesday's Gone

Metallica

Cifra: Versão 2 (violão e guitarra)
tom: A
Intro: A E F#m D        Riff: 1 E|-------------------------------| 
       A E D D9                 B|-------------------------------|
                                G|-9--7--9--7-9--7------9--------|
                                D|-----------------9h11---11--7~-|
                                A|-------------------------------|

e|------------------------------------------|------------------0---|
B|------------------------------------------|--------------------3-|
G|------------------------------------------|----------------------|
D|--9b--7~--7b--5~--7h5--2--2/5--5/7--7/9~--|-9b--7~--7b-7--5~-----|
A|------------------------------------------|----------------------|
E|------------------------------------------|----------------------|

e|-----------------------------------------------------------------|
B|-----------------------------------------------------------------|
G|-----------------------------------------------------------------|
D|---9b-9b-7~--9b-9b-7~--9b-9b-9h7---------------------------------|
A|-------------------7-------------9~---9--5--4--5--4--5--4--------|
E|-----------------------------------------------------------------|

e|---------------------------------------0---0---0-----------------|
B|-----------------------------------------3---3-------------------|
G|-------------------------9---9b--9--7-----------------9----------|
D|--------7-9--9b----9b-9b-------------------------9h11---11---7~--|
A|-5/7--9----------------------------------------------------------|
E|-----------------------------------------------------------------|

A           E    F#m            D
Train roll on, on down the line won’t you,
A                E        D D9  riff:1
Please take me far, far away.
A                        E     F#m         D
Now I feel the wind blow, outside my door,
A             E       D D9   riff:1
I leave my woman, at home.

REFRÃO
:   A         G             D
:   Tuesday’s gone, with the wind.
:   A       E                D  D9            riff:1
:   My baby gone, with the wind.

  Solo 1
e|-----------------------------------------------------------------|
B|-----------------------------------------------------------------|
G|-----------------------9-----------------------------------------|
D-9b-9b-7~--9b-9b-7~--9b-9h7---------------------------------7--9-|
A|-----------------7---------9~--9--5--4--5--4--5--4--5/7--9-------|
E|-----------------------------------------------------------------|

e|-------------------------------------------------------------------|
B|-------------------------------------------------------------------|
G|-------------------------9b11-9--7~--9--7--9--7--9--7------9-------|
D-7-9b-9h11--9b11--9h11p9------------------------------9h11---11--7-|
A|-------------------------------------------------------------------|

(A E F#m D A E D9) 1x

A               E            F#m               D
And I don’t know, oh where I’m going,
A                 E      D9
I just want to be, left alone.
A                 E    F#m          D
When this train ends, I will try again,
A             E         D D9
I leave my woman, at home.

REFRÃO

:   A         G             D
:   Tuesday’s gone, with the wind.
:   A         G             D
:   Tuesday’s gone, with the wind.
:   A         G             D
:   Tuesday’s gone, with the wind.
:   A       E               D D9
:   My baby gone, with the wind.

(A E F#m D A E F#m G D9) 2x

REFRÃO

:   A         G             D
:   Tuesday’s gone, with the wind.
:   A         G             D
:   Tuesday’s gone, with the wind.
:   A         G             D
:   Tuesday’s gone, with the wind.
:   A       E                D  D9
:   My baby gone, with the wind.

A           E   F#m                       D
Train roll on, many miles from my home,
A          E                  D  D9
See, I’m riding, my blues away.
A                  E    F#m          D
Tuesday, you see, she had to be free,
A               E                  D D9 
But somehow, I’ve got to, carry on.

REFRÃO

:   A         G             D
:   Tuesday’s gone, with the wind.
:   A         G             D
:   Tuesday’s gone, with the wind.
:   A         G             D
:   Tuesday’s gone, with the wind.
:   A       E             D
:   My baby gone, with the wind.

Solo de gaita (A E D) 12x  ( A ) 2x
Composição de Allen Collins / Ronnie Van Zant
Colaboração e revisão:
  • Jose Sousa
18.820 exibições
    • ½ Tom
    • A
    • Bb
    • B
    • C
    • Db
    • D
    • Eb
    • E
    • F
    • F#
    • G
    • Ab
  • Adicionar à lista

    0 comentários

    Ver todos os comentários

    Conseguiu tocar?

    0 Tocaram 0 Ainda não

    Grave um vídeo tocando Tuesday's Gone e nos envie!

    00:00 / 00:00
    outros vídeos desta música
    repetir qualidade Automático
    Outros vídeos desta música
    00:00 / 00:00
    Automático

    Cifra Club Pro

    Aproveite o Cifra Club com benefícios exclusivos e sem anúncios
    Cifra Club Pro
    Aproveite o Cifra Club com benefícios exclusivos e sem anúncios
    OK