Cifra Club

Mr Crowley (Solo)

Ozzy Osbourne

Cifra: Principal (violão e guitarra)
tom: C
E|----------------------------------------------------------|
B|-------------------------------------------------3-5---5--|
G|--------0-2------2-0----0-2--4-5------5-4-2--4-5-----4----|
D|-0--2-3------2-------3------------5-----------------------|
A|---------------0--------------------3---------------------|
E|----------------------------------------------------------|

E|-----------------------|
B|-----------------------|
G|-----------------------|
D|-7--8--3--5--3--2--3-7-|
A|-----------------------|
E|-5--6--1--3--1--0--1-5-|

00:00 / 00:00
Outros vídeos desta música
Repetir
Outros vídeos desta música
Compositor não encontrado.
Colaboração e revisão:
  • Fabrício Zoppas
  • lucas silva
38.905 exibições
    • ½ Tom
    • A
    • Bb
    • B
    • C
    • Db
    • D
    • Eb
    • E
    • F
    • F#
    • G
    • Ab
  • Adicionar à lista

    0 comentários

    Ver todos os comentários

    Conseguiu tocar?

    4 Tocaram 0 Ainda não

    Grave um vídeo tocando Mr Crowley (Solo) e nos envie!

    Entre para oCifra Club PRO

    Tenha acesso a benefícios exclusivos no App e no Site

    • Chega de anúncios

    • Prioridade de compra em lançamentos

    • Mais recursos no app do Afinador

    • Atendimento Prioritário

    • Descontos nos produtos Cifra Club

    • Ajude a produzir mais conteúdo

    00:00 / 00:00

    Cifra Club Pro

    Aproveite o Cifra Club com benefícios exclusivos e sem anúncios
    Cifra Club Pro
    Aproveite o Cifra Club com benefícios exclusivos e sem anúncios
    OK