Cifra Club

Body Of Water

Red Hot Chili Peppers

Tab de baixo: Principal
exibições 475
From the Zephyr Song single

Tabbed by Pecca (*)

Intro:
G|--------|-------------------------|-------------------------|
D|--------|-------------------------|-------------------------|
A|-8-9-10-|-10-10-10-10-10-10-10-10-|-10-10-10-10-10-10-10-10-|
E|--------|-------------------------|-------------------------|

G|----------------------|--------------|--------------------------|
D|----------------------|-----8--8-----|------8-------------------|
A|-8----8-9-10-10-10-10-|-10--------10-|-8h10---10-10-10-10-10-10-|
E|---10-----------------|--------------|--------------------------|

G|--------------------------|-------------------------|-------------------------|
D|------------------8-------|-------------------------|-------------------------|
A|-10-10-10-10-8h10---10-10-|-10-10-10-10-10-10-10-10-|-10-10-10-10-10-10-10-10-|
E|--------------------------|-------------------------|-------------------------|

G|-------------------|-----------------|---------------------|
D|-------------------|-----------------|---------------------|
A|-10-8--------------|---3-------------|--------/10-10-10-10-|
E|------10-8-6-3-1-0-|-1---1-3-1-0-1-3-|-3-3-3-3-------------|

G|-------------------------|-------------------------|---------------------------|
D|-------------------------|-------------------------|-------8-10b-10b-10b-10b-8-|
A|-10-10-10-10-10-10-10-10-|-10-10-10-10-10-10-10-10-|-10-10---------------------|
E|-------------------------|-------------------------|---------------------------|

G|-------------------------|-----10----10----10-------10-------10----|
D|-------------------------|-/12----12----12----12-12----12-12----12-|
A|-10-10-10-10-10-10-10-10-|-----------------------------------------|
E|-------------------------|-----------------------------------------|

G|-12-10------------------|-------------------------|-------------------------|
D|-------12-10-10b-8------|-------------------------|-------------------------|
A|-------------------10-8-|-10-10-10-10-10-10-10-10-|-10-10-10-10-10-10-10-10-|
E|------------------------|-------------------------|-------------------------|

G|-------------------------|-------------------------|
D|-------------------------|-------------------------|
A|-10-10-10-10-10-10-10-10-|-10-10-10-10-10-10-10-10-|
E|-------------------------|-------------------------|

G|---------------------------------------|
D|---------------------------------------|
A|-10-10--10--10-10-10--10--10-10-10--10-|
E|---------------------------------------|

Verse:
G|-----3-----------------------7-|-----------------|
D|---3-------5-----3-----6---7---|-----------------|
A|-1-------5-----3-----6---5-----|-3-3-3-3-3-3-3-3-|x8
E|-------3-----1-----4-----------|-----------------|

Chorus:
G|-----------------|---------------------------------------|-----------------|
D|-1-1-----3-3-----|---------------------------------------|-1-1-----3-3-----|
A|-----3-3-----3-3-|-3-3-3-3-------------------------------|-----3-3-----3-3-|
E|-----------------|---------3-3-3-3-3-3/15-15-15-15-15-15-|-----------------|

G|-----------------------------------|-----------------|
D|---------5-5-5-5-5-5-5-5-5-5-5-3---|-1-1-----3-3-----|
A|-3-3-3-3-------------------------5-|-----3-3-----3-3-|
E|-----------------------------------|-----------------|

G|-------------------------------------------------|-----------------|
D|-------------------------------------------------|-1-1-----3-3-----|
A|-3-3-3-3----------------------------------13-----|-----3-3-----3-3-|
E|---------3-3-3-3-3-3/15-15-15-15-15-15-15----15--|-----------------|

G|---------------------------------------|
D|---------5-3---5-3---5--5-5-5-5-5-5/17-|
A|-3-3-3-3-----5-----5-------------------|
E|---------------------------------------|

Bridge:
G|---------------------------------|---------------------------------|
D|---------------------------------|---------------------------------|
A|-3-3-3-3-3-3-3-3-3-3-3-3-3-3-3-3-|-3-3-3-3-3-3-3-3-3-3-3-3-3-3-3-3-|
E|---------------------------------|---------------------------------|

G|-----------------------------------|---------------------------------|
D|---------------------------7/9-7-5-|---------------------------------|
A|-5-5-5-5-5-5-5-5-5-5-5-5-5---------|-5-5-5-5-5-5-5-5-5-5-5-5-5-5-5-5-|
E|---------------------------------------------------------------------|

G|---------------------------------|---------------------------------|
D|---------------------------------|---------------------------------|
A|-7-7-7-7-7-7-7-7-7-7-7-7-7-7-7-7-|-7-7-7-7-7-7-7-7-7-7-7-7-7-7-7-7-|
E|---------------------------------|---------------------------------|

G|--------------------------10---10-12b-12b-12b-12b-12b-12b-12-|-10--------------|
D|--------------------10h12----12------------------------------|----12--10-12-10-|
A|-8-9-10-10-10-10-10------------------------------------------|-----------------|
E|-------------------------------------------------------------|-----------------|

G|---------------------------------|---------------------------------|---|
D|---------------------------------|---------------------------------|---|
A|---------------------------------|---------------------------------|-5-|
E|-6-6-6-6-6-6-6-6-6-6-6-6-6-6-6-6-|-6-6-6-6-6-6-6-6-6-6-6-6-6-6-6-6-|---|

0 comentários

    mostrar mais comentários

    Conseguiu tocar?

    0tocaram0ainda não

    Grave um vídeo tocando Body Of Water e mande pra gente!

    00:00 / 00:00
    outros vídeos desta música
    repetirqualidadeautomática
    Outro vídeos desta música
      00:00 / 00:00
      automática
      OK