Cifra Club

By The Way

Red Hot Chili Peppers

Cifra: Versão 4 (violão e guitarra)
tom: C

Intro
e----------------------------|----------------------------|
B|---------------------------|----------------------------|
G|---5--5--5--5--5--5--5--5--|---5--5--5--5--5--5--5--5---|
D|---3--3--3--3--3--3--3--3--|---2--2--2--2--2--2--2--2---|
A|---------------------------|----------------------------|
E|---------------------------|----------------------------|

e----------------------------|----------------------------|
B|---------------------------|----------------------------|
G|---------------------------|----------------------------|
D|----2--2--2--2--2--2--2--2-|---2--2--2--2--2--2--2--2---|
A|----0--0--0--0--0--0--0--0-|---0--0--0--0--0--0--0--0---|
E|---------------------------|----------------------------|

Standing in line...
e----------------------------|----------------------------|
B|---------------------------|----------------------------|
G|---5--5--5--5--5--5--5--5--|---5--5--5--5--5--5--5--5---|
D|---3--3--3--3--3--3--3--3--|---5--5--5--5--5--5--5--5---|
A|---------------------------|----------------------------|
E|---------------------------|----------------------------|

e----------------------------|--------------------------------|
B|---------------------------|--------------------------------|
G|---2--2--2--2--2--2--2--2--|---2--2--2--2-------------------|
D|---2--2--2--2--2--2--2--2--|---2--2--2--2------9--9--7--7---|
A|---------------------------|--------------------------------|
E|---------------------------|--------------------------------|

by the way......
e----------------------------|----------------------------|
B|---------------------------|----------------------------|
G|---------------------------|----------------------------|
D|---10-10-10-10-10-10-10-10-|---10-10-10-10-10-10-10-10--|
A|----8--8--8--8--8--8--8--8-|----7--7--7--7--7--7--7--7--|
E|---------------------------|----------------------------|

e----------------------------|----------------------------|
B|---------------------------|----------------------------|
G|---------------------------|----------------------------|
D|---------------------------|----------------------------|
A|----7--7--7--7--7--7--7--7-|---7--7--7--7--7--7--7--7---|
E|----5--5--5--5--5--5--5--5-|---5--5--5--5--5--5--5--5---|

Dani the girl.......
e---------------------------|----------------------------|
B|---------------------------|----------------------------|
G|---------------------------|---9--9--9--9--9--9--9--9---|
D|---10-10-10-10-10-10-10-10-|--10-10-10-10-10-10-10-10---|
A|----8--8--8--8--8--8--8--8-|----------------------------|
E|---------------------------|----------------------------|

e---------------------------|----------------------------|
B|---------------------------|----------------------------|
G|----9--9--9--9--9--9--9--9-|---9--9--9--9--9--9--9--9---|
D|----7--7--7--7--7--7--7--7-|---7--7--7--7--7--7--7--7---|
A|---------------------------|----------------------------|
E|---------------------------|----------------------------|

F                              C*
 Standing in line_  to see the show tonight_
               A5                             A5* Asus4
 and there's a light__ on__    heavy_ glow__
F (drums enter)   C*
 By_ the_ way_ I_ tried to say  
    A5
I'd be there__           wai__ting for__
F                           C*
 Dani the girl_ is  singing songs to me_
            A5
beneath the mar__quee__     overload__
Riff2 (Funky)
|-xxx-xxx-xxxx-xxx-xx10xxx10xxxx|(131313)|
|-xxx-xxx-xxxx-xxx-xx10xxx10xxxx|-131313-|
|-xxx-xxx-xxxx-xxx-xx10xxx10xxxx|-121212-|
|-------------------------------|--------|
|-------------------------------|--------|
|-------------------------------|--------|

[Chorus1]
Am                              C
 Standing in line_  to see the show tonight_
               F                   G
 and there's a light__ on__    heavy_ glow__
F                 C
 By_ the_ way_ I_ tried to say  
(By_ the_ WAY_ I_ tried to SAY)
     Am                        Bb
 I'd be there__           wai__ting for__
(I'd be there__)
[Verse1]

[Chorus2] (like intro)
F                              C*
 Standing in line_  to see the show tonight_
               A5
 and there's a light__ on__    heavy_ glow__
F                 C*
 By_ the_ way_ I_ tried to say  
    A5                                    A5* Asus4
I'd be there__           wai__ting for__
F (drums enter)             C*
 Dani the girl_ is  singing songs to me_
            A5
beneath the mar__quee__     oversold__
F                 C*
 By_ the_ way_ I_ tried to say  
    A5
I'd be there__           wai__ting FOR__
Am                              C
 Standing in line_  to see the show tonight_
               F                   G
 and there's a light__ on__    heavy_ glow__
F                 C
 By_ the_ way_ I_ tried to say  
     Am                        Bb            Dm
 I'd be there__           wai__ting for_______
Composição de Anthony Kiedis / Chad Smith / Flea / John Frusciante
Colaboração e revisão:
  • STEFANO SCHMITT
  • Diomedes Junior
40.545 exibições
    • ½ Tom
    • A
    • Bb
    • B
    • C
    • Db
    • D
    • Eb
    • E
    • F
    • F#
    • G
    • Ab
  • Adicionar à lista

    0 comentários

    Ver todos os comentários

    Conseguiu tocar?

    3 Tocaram 0 Ainda não

    Grave um vídeo tocando By The Way e nos envie!

    00:00 / 00:00
    Outros vídeos desta música
    Repetir Qualidade Automático
    Outros vídeos desta música
    00:00 / 00:00
    Automático
    Capítulos
    • Tocando a música
    • Dicas iniciais / Equipamentos
    • Tocando Introdução
    • Ensinando Introdução e Primeira Parte
    • Dicas e Acordes da Segunda Parte
    • Tocando Segunda Parte
    • Ensinando Segunda Parte
    • Ensinando Passagem 1
    • Ensinando Passagem 2
    • Ensinando Passagem 3
    • Acordes do Refrão
    • Tocando Refrão
    • Ensinando Refrão
    • Dicas Ponte / Terceira Parte / Refrão
    • Tocando Ponte ao Segundo Refrão
    • Dicas Quarta Parte
    • Ensinando Quarta Parte
    • Dicas Repetição - Final
    • Tocando Final
    • Encerramento
    • Ficha técnica / Erros de gravação

    Cifra Club Pro

    Aproveite o Cifra Club com benefícios exclusivos e sem anúncios
    Cifra Club Pro
    Aproveite o Cifra Club com benefícios exclusivos e sem anúncios
    OK