Cifra Club

By The Way

Red Hot Chili Peppers

Cifra: Versão 9 (violão e guitarra)
tom: D
Introdução
e----------------------------|----------------------------|
B|---------------------------|----------------------------|
G|---5--5--5--5--5--5--5--5--|---5--5--5--5--5--5--5--5---|
D|---3--3--3--3--3--3--3--3--|---2--2--2--2--2--2--2--2---|
A|---------------------------|----------------------------|
E|---------------------------|----------------------------|

e----------------------------|----------------------------|
B|---------------------------|----------------------------|
G|---------------------------|----------------------------|
D|----2--2--2--2--2--2--2--2-|---2--2--2--2--2--2--2--2---|
A|----0--0--0--0--0--0--0--0-|---0--0--0--0--0--0--0--0---|
E|---------------------------|----------------------------|

Standing in line to see the show tonight 
e----------------------------|----------------------------|
B|---------------------------|----------------------------|
G|---5--5--5--5--5--5--5--5--|---5--5--5--5--5--5--5--5---|
D|---3--3--3--3--3--3--3--3--|---2--2--2--2--2--2--2--2---|
A|---------------------------|----------------------------|
E|---------------------------|----------------------------|

and there's a light on heavy glow
e----------------------------|--------------------------------|
B|---------------------------|--------------------------------|
G|---2--2--2--2--2--2--2--2--|---2--2--2--2-------------------|
D|---2--2--2--2--2--2--2--2--|---2--2--2--2------9--9--7--7---|
A|---------------------------|--------------------------------|
E|---------------------------|--------------------------------|

by the way I tried to say 
e----------------------------|----------------------------|
B|---------------------------|----------------------------|
G|---------------------------|----------------------------|
D|---10-10-10-10-10-10-10-10-|---10-10-10-10-10-10-10-10--|
A|----8--8--8--8--8--8--8--8-|----7--7--7--7--7--7--7--7--|
E|---------------------------|----------------------------|

I'd be there waiting for
e----------------------------|----------------------------|
B|---------------------------|----------------------------|
G|---------------------------|----------------------------|
D|---------------------------|----------------------------|
A|----7--7--7--7--7--7--7--7-|---7--7--7--7--7--7--7--7---|
E|----5--5--5--5--5--5--5--5-|---5--5--5--5--5--5--5--5---|

Dani the girl is singing songs to me 
e---------------------------|----------------------------|
B|---------------------------|----------------------------|
G|---------------------------|---9--9--9--9--9--9--9--9---|
D|---10-10-10-10-10-10-10-10-|--10-10-10-10-10-10-10-10---|
A|----8--8--8--8--8--8--8--8-|----------------------------|
E|---------------------------|----------------------------|

beneath the marquee...overload 
e---------------------------|----------------------------|
B|---------------------------|----------------------------|
G|----9--9--9--9--9--9--9--9-|---9--9--9--9--9--9--9--9---|
D|----7--7--7--7--7--7--7--7-|---7--7--7--7--7--7--7--7---|
A|---------------------------|----------------------------|
E|---------------------------|----------------------------|

D -> Abafado
steak knife
card shark 
con job
boot cut 

Dm -> Rápido e Abafado
Skin that flick 
she's such a little DJ 
to get there quick 
by street but not the freeway 
turn that trick 
to make a little leeway 
beat that nic 
but not the way that we play 

D -> Abafado
dogtown 
blood bath 
rib cage 
soft tal 

Standing in line to see the show tonight 
e----------------------------|----------------------------|
B|---------------------------|----------------------------|
G|---5--5--5--5--5--5--5--5--|---5--5--5--5--5--5--5--5---|
D|---3--3--3--3--3--3--3--3--|---2--2--2--2--2--2--2--2---|
A|---------------------------|----------------------------|
E|---------------------------|----------------------------|

and there's a light on heavy glow
e----------------------------|--------------------------------|
B|---------------------------|--------------------------------|
G|---2--2--2--2--2--2--2--2--|---2--2--2--2-------------------|
D|---2--2--2--2--2--2--2--2--|---2--2--2--2------9--9--7--7---|
A|---------------------------|--------------------------------|
E|---------------------------|--------------------------------|

by the way I tried to say 
e----------------------------|----------------------------|
B|---------------------------|----------------------------|
G|---------------------------|----------------------------|
D|---10-10-10-10-10-10-10-10-|---10-10-10-10-10-10-10-10--|
A|----8--8--8--8--8--8--8--8-|----7--7--7--7--7--7--7--7--|
E|---------------------------|----------------------------|

I'd be there waiting for
e----------------------------|----------------------------|
B|---------------------------|----------------------------|
G|---------------------------|----------------------------|
D|---------------------------|----------------------------|
A|----7--7--7--7--7--7--7--7-|---7--7--7--7--7--7--7--7---|
E|----5--5--5--5--5--5--5--5-|---5--5--5--5--5--5--5--5---|

Dani the girl is singing songs to me 
e---------------------------|----------------------------|
B|---------------------------|----------------------------|
G|---------------------------|---9--9--9--9--9--9--9--9---|
D|---10-10-10-10-10-10-10-10-|--10-10-10-10-10-10-10-10---|
A|----8--8--8--8--8--8--8--8-|----------------------------|
E|---------------------------|----------------------------|

beneath the marquee...overload 
e---------------------------|----------------------------|
B|---------------------------|----------------------------|
G|----9--9--9--9--9--9--9--9-|---9--9--9--9--9--9--9--9---|
D|----7--7--7--7--7--7--7--7-|---7--7--7--7--7--7--7--7---|
A|---------------------------|----------------------------|
E|---------------------------|----------------------------|

D -> Abafado
black jack 
dope dick 
pawn shop 
quick pick 

Dm -> Rápido e Abafado
kiss that dyke 
i know you want to hold one 
not on strike 
but I'm about to bowl one 
bite that mic 
I know you never stole one 
girls that like 
a story, so I told one 

D -> Abafado
song bird 
main line 
cash back 
hard top 

Standing in line to see the show tonight 
e----------------------------|----------------------------|
B|---------------------------|----------------------------|
G|---5--5--5--5--5--5--5--5--|---5--5--5--5--5--5--5--5---|
D|---3--3--3--3--3--3--3--3--|---2--2--2--2--2--2--2--2---|
A|---------------------------|----------------------------|
E|---------------------------|----------------------------|

and there's a light on heavy glow
e----------------------------|--------------------------------|
B|---------------------------|--------------------------------|
G|---2--2--2--2--2--2--2--2--|---2--2--2--2-------------------|
D|---2--2--2--2--2--2--2--2--|---2--2--2--2------9--9--7--7---|
A|---------------------------|--------------------------------|
E|---------------------------|--------------------------------|

by the way I tried to say 
e----------------------------|----------------------------|
B|---------------------------|----------------------------|
G|---------------------------|----------------------------|
D|---10-10-10-10-10-10-10-10-|---10-10-10-10-10-10-10-10--|
A|----8--8--8--8--8--8--8--8-|----7--7--7--7--7--7--7--7--|
E|---------------------------|----------------------------|

I'd be there waiting for
e----------------------------|----------------------------|
B|---------------------------|----------------------------|
G|---------------------------|----------------------------|
D|---------------------------|----------------------------|
A|----7--7--7--7--7--7--7--7-|---7--7--7--7--7--7--7--7---|
E|----5--5--5--5--5--5--5--5-|---5--5--5--5--5--5--5--5---|

Dani the girl is singing songs to me 
e---------------------------|----------------------------|
B|---------------------------|----------------------------|
G|---------------------------|---9--9--9--9--9--9--9--9---|
D|---10-10-10-10-10-10-10-10-|--10-10-10-10-10-10-10-10---|
A|----8--8--8--8--8--8--8--8-|----------------------------|
E|---------------------------|----------------------------|

beneath the marquee...oversold
e---------------------------|----------------------------|
B|---------------------------|----------------------------|
G|----9--9--9--9--9--9--9--9-|---9--9--9--9--9--9--9--9---|
D|----7--7--7--7--7--7--7--7-|---7--7--7--7--7--7--7--7---|
A|---------------------------|----------------------------|
E|---------------------------|----------------------------|

Standing in line to see the show tonight 
e----------------------------|----------------------------|
B|---------------------------|----------------------------|
G|---5--5--5--5--5--5--5--5--|---5--5--5--5--5--5--5--5---|
D|---3--3--3--3--3--3--3--3--|---2--2--2--2--2--2--2--2---|
A|---------------------------|----------------------------|
E|---------------------------|----------------------------|

and there's a light on heavy glow
e----------------------------|--------------------------------|
B|---------------------------|--------------------------------|
G|---2--2--2--2--2--2--2--2--|---2--2--2--2-------------------|
D|---2--2--2--2--2--2--2--2--|---2--2--2--2------9--9--7--7---|
A|---------------------------|--------------------------------|
E|---------------------------|--------------------------------|

by the way I tried to say 
e----------------------------|----------------------------|
B|---------------------------|----------------------------|
G|---------------------------|----------------------------|
D|---10-10-10-10-10-10-10-10-|---10-10-10-10-10-10-10-10--|
A|----8--8--8--8--8--8--8--8-|----7--7--7--7--7--7--7--7--|
E|---------------------------|----------------------------|

I'd be there waiting for
e----------------------------|----------------------------|
B|---------------------------|----------------------------|
G|---------------------------|----------------------------|
D|---------------------------|----------------------------|
A|----7--7--7--7--7--7--7--7-|---7--7--7--7--7--7--7--7---|
E|----5--5--5--5--5--5--5--5-|---5--5--5--5--5--5--5--5---|

Dani the girl is singing songs to me 
e---------------------------|----------------------------|
B|---------------------------|----------------------------|
G|---------------------------|---9--9--9--9--9--9--9--9---|
D|---10-10-10-10-10-10-10-10-|--10-10-10-10-10-10-10-10---|
A|----8--8--8--8--8--8--8--8-|----------------------------|
E|---------------------------|----------------------------|

beneath the marquee...oversold
e---------------------------|----------------------------|
B|---------------------------|----------------------------|
G|----9--9--9--9--9--9--9--9-|---9--9--9--9--9--9--9--9---|
D|----7--7--7--7--7--7--7--7-|---7--7--7--7--7--7--7--7---|
A|---------------------------|----------------------------|
E|---------------------------|----------------------------|

by the way I tried to say 
e----------------------------|----------------------------|
B|---------------------------|----------------------------|
G|---------------------------|----------------------------|
D|---10-10-10-10-10-10-10-10-|---10-10-10-10-10-10-10-10--|
A|----8--8--8--8--8--8--8--8-|----7--7--7--7--7--7--7--7--|
E|---------------------------|----------------------------|

I know you ... from before
e----------------------------|----------------------------|
B|---------------------------|----------------------------|
G|---------------------------|----------------------------|
D|---------------------------|----------------------------|
A|----7--7--7--7--7--7--7--7-|---7--7--7--7--7--7--7--7---|
E|----5--5--5--5--5--5--5--5-|---5--5--5--5--5--5--5--5---|

Standing in line to see the show tonight 
e----------------------------|----------------------------|
B|---------------------------|----------------------------|
G|---5--5--5--5--5--5--5--5--|---5--5--5--5--5--5--5--5---|
D|---3--3--3--3--3--3--3--3--|---2--2--2--2--2--2--2--2---|
A|---------------------------|----------------------------|
E|---------------------------|----------------------------|

and there's a light on heavy glow
e----------------------------|--------------------------------|
B|---------------------------|--------------------------------|
G|---2--2--2--2--2--2--2--2--|---2--2--2--2-------------------|
D|---2--2--2--2--2--2--2--2--|---2--2--2--2------9--9--7--7---|
A|---------------------------|--------------------------------|
E|---------------------------|--------------------------------|

by the way I tried to say 
e----------------------------|----------------------------|
B|---------------------------|----------------------------|
G|---------------------------|----------------------------|
D|---10-10-10-10-10-10-10-10-|---10-10-10-10-10-10-10-10--|
A|----8--8--8--8--8--8--8--8-|----7--7--7--7--7--7--7--7--|
E|---------------------------|----------------------------|

I'd be there waiting for
e----------------------------|----------------------------|
B|---------------------------|----------------------------|
G|---------------------------|----------------------------|
D|---------------------------|----------------------------|
A|----7--7--7--7--7--7--7--7-|---7--7--7--7--7--7--7--7---|
E|----5--5--5--5--5--5--5--5-|---5--5--5--5--5--5--5--5---|
Composição de Anthony Kiedis / Chad Smith / Flea / John Frusciante
4.484 exibições
    • ½ Tom
    • A
    • Bb
    • B
    • C
    • Db
    • D
    • Eb
    • E
    • F
    • F#
    • G
    • Ab
  • Adicionar à lista

    0 comentários

    Ver todos os comentários

    Conseguiu tocar?

    0 Tocaram 0 Ainda não

    Grave um vídeo tocando By The Way e nos envie!

    00:00 / 00:00
    Outros vídeos desta música
    Repetir Qualidade Automático
    Outros vídeos desta música
    00:00 / 00:00
    Automático
    Capítulos
    • Tocando a música
    • Dicas iniciais / Equipamentos
    • Tocando Introdução
    • Ensinando Introdução e Primeira Parte
    • Dicas e Acordes da Segunda Parte
    • Tocando Segunda Parte
    • Ensinando Segunda Parte
    • Ensinando Passagem 1
    • Ensinando Passagem 2
    • Ensinando Passagem 3
    • Acordes do Refrão
    • Tocando Refrão
    • Ensinando Refrão
    • Dicas Ponte / Terceira Parte / Refrão
    • Tocando Ponte ao Segundo Refrão
    • Dicas Quarta Parte
    • Ensinando Quarta Parte
    • Dicas Repetição - Final
    • Tocando Final
    • Encerramento
    • Ficha técnica / Erros de gravação

    Cifra Club Pro

    Aproveite o Cifra Club com benefícios exclusivos e sem anúncios
    Cifra Club Pro
    Aproveite o Cifra Club com benefícios exclusivos e sem anúncios
    OK