Cifra Club

By The Way

Red Hot Chili Peppers

Tab de baixo: Versão 4
Ai Pessoal, a principal correção dessa musica é a afinação... 
G D A D, sendo corda Mi afinada em Ré.
abraço e detonem agora!

Intro

G|-17-17-17-17-17-17-17-17--16-16-16-16-16-16-16-16------------------------|
D|-------------------------------------------------------------------------|
A|-------------------------------------------------------------------------|
D|-------------------------------------------------------------------------|

G|-------------------------------------------------------------------------|
D|-14-14-14-14-14-14-14-14--14-14-14-14-14-14-14-14------------------------|
A|-------------------------------------------------------------------------|
D|-------------------------------------------------------------------------|

G|-17-17-17-17-17-17-17-17--19-19-19-19-19-19-19-19------------------------|
D|-------------------------------------------------------------------------|
A|-------------------------------------------------------------------------|
D|-------------------------------------------------------------------------|

G|-14-14-14-14-14-14-14-14-14-14-14-14-14-14-14-14/------------------------|
D|-------------------------------------------------------------------------|
A|-------------------------------------------------------------------------|
D|-------------------------------------------------------------------------|

G|-----------------------------------2-2-2-2-2-2-2-2-2-2-2-2-2-2-2/--------|
D|-------------------------------------------------------------------------|
A|-8-8-8-8-8-8-8-8-3-3-3-3-3-3-3-3-0---------------------------------------|
D|-------------------------------------------------------------------------|

G|-17-17-17-17-17-17-17-17--19-19-19-19-19-19-19-19-19-21-21-21-21-21-21---|
D|-------------------------------------------------------------------------|
A|-------------------------------------------------------------------------|
D|-------------------------------------------------------------------------|

G|-21-21-21-21-21-21-21-21-21-21-------------------------------------------|
D|-------------------------------------------------------------------------|
A|-------------------------------------------------------------------------|
D|-------------------------------------------------------------------------|

Verse

G|--------------------------------------------------------------------------|
D|---------3-------------------------------------3--------------------------|
A|-----3h5---3h5-0h3------3h5---0h3-0-0------3h5---3h5-0h3------3h5-55-5566-| 4x
D|-0-0----------------0-0----3h5---------0-0----------------0-0-------------|

Refrão

G|-------------------------------------------------------------------------|
D|--------7-10-1010-1010-1010-10-12-1212-12-1212-12------------------------|
A|-88-888------------------------------------------------------------------|
D|-------------------------------------------------------------------------|

G|-------------------------------------------------------------------------|
D|--------7-10-1010-1010-1010/7-7-77-7-7-88-8-88---------------------------|
A|-88-888------------------------------------------------------------------|
D|-------------------------------------------------------------------------|

Verse

G|--------------------------------------------------------------------------|
D|---------3------------------3------------------3--------------------------|
A|-----3h5---3h5-0h3------3h5---0h3-0-0------3h5---3h5-0h3------3h5-55-5566-| 4x
D|-0-0----------------0-0----3h5---------0-0----------------0-0-------------|

Intro 1x

solo=verse 1x

verse 4x

refrao

G|-------------------------------------------------------------------------|
D|--------7-10-1010-1010-1010-10-12-1212-12-1212-12------------------------|
A|-88-888------------------------------------------------------------------|
D|-------------------------------------------------------------------------|

G|-------------------------------------------------------------------------|
D|--------7-10-1010-1010-1010/7-7-77-7-7-88-8-88---------------------------|
A|-88-888------------------------------------------------------------------|
D|-------------------------------------------------------------------------|

G|-------------------------------------------------------------------------|
D|--------7-10-1010-1010-1010-10-12-14-15-14-1212-10-12-10-----------------|
A|-88-888--------------------------------------------------12-10-----------|
D|-------------------------------------------------------------------------|

G|-------------------------------------------------------------------------|
D|--------7-10-1010-1010-1010/7-7-77-7-7-88-8-88---------------------------|
A|-88-888------------------------------------------------------------------|
D|-------------------------------------------------------------------------|
Composição de Anthony Kiedis / Chad Smith / Flea / John Frusciante
Colaboração e revisão:
  • Frederico Augusto
  • luiz oliveira
  • Rodrigo Perdigão
14.343 exibições

0 comentários

Ver todos os comentários

Conseguiu tocar?

0 Tocaram 0 Ainda não

Grave um vídeo tocando By The Way e nos envie!

00:00 / 00:00
Outros vídeos desta música
Repetir Qualidade Automático
Outros vídeos desta música
00:00 / 00:00
Automático
Capítulos
  • Tocando a música
  • Dicas iniciais / Equipamentos
  • Tocando Introdução
  • Ensinando Introdução
  • Dicas Primeira Parte
  • Tocando Primeira Parte
  • Ensinando Primeira Parte
  • Dicas Segunda Parte
  • Tocando Segunda Parte
  • Ensinando Segunda Parte
  • Dicas Refrão
  • Tocando Refrão
  • Ensinando Refrão
  • Dicas Repetição / Terceiro Refrão
  • Tocando Terceiro Refrão
  • Ensinando Terceiro Refrão
  • Encerramento
  • Ficha técnica / Erros de gravação

Cifra Club Pro

Aproveite o Cifra Club com benefícios exclusivos e sem anúncios
Cifra Club Pro
Aproveite o Cifra Club com benefícios exclusivos e sem anúncios
OK