Cifra Club

Aprenda

The Adventures Of Rain Dance Maggie

Red Hot Chili Peppers

Tab de baixo: Principal
[Verse]

G|-----------------------------------|
D|----------55-----------------------|
A|7--7---7-----7-5-4-3--3-3-55-3-5-6-|
E|-----------------------------------|

G|-----------------------------------|
D|---------55------5-----------------|
A|7--7---7----7--5---3--3-3-55-3-2-0-|
E|-----------------------------------|

repeat as nessercary


[Chorus]

G|------12----------12-----9--9--9--|
D|----------------------------------|
A|10-10-----10-10------7-7---7-7----|
E|----------------------------------|

G|------12-----1212---12----9---9---9-|
D|------------------------------------|
A|10-10-----10-----10----7-7--7---7---|
E|------------------------------------|

G|----5---5---5------4---4---4--------|
D|------------------------------------|
A|3-3---3---3----2-2---2---2----------|
E|------------------------------------|

G|------------------------------------|
D|----7---7---------------------------|
A|-----------3-4-5-5-5-5-5-5-5--------|
E|5-5---5--5--------------------------|
Composição de Anthony Kiedis / Chad Smith / Flea / Josh Klinghoffer
Colaboração e revisão:
34.352 exibições

0 comentários

Ver todos os comentários

Conseguiu tocar?

35 Tocaram 1 Ainda não

Grave um vídeo tocando The Adventures Of Rain Dance Maggie e nos envie!

00:00 / 00:00
Outros vídeos desta música
Repetir Qualidade Automático
Outros vídeos desta música
00:00 / 00:00
Automático

Cifra Club Pro

Aproveite o Cifra Club com benefícios exclusivos e sem anúncios
Cifra Club Pro
Aproveite o Cifra Club com benefícios exclusivos e sem anúncios
OK