Cifra Club

Rain Of a Thousand Flames

Rhapsody

Cifra: Principal (violão e guitarra)
tom: D
  Intro
E|-----------------------------------------------------------------------------------|
B|-----------------------------------------------------------------------------------|
G|------------------------------5~---------------------------------------------------|
D|---------5-5------------6~----5~---------------------------------------------------|
A|--2-2----3-3-\--2-2-----6~----3~--------3h5---5h7-------9h10---7h9-------------3h5-|
E|--0-0-\---------0-0-\---4~--------0-0-0-----0-----0-0-0------0-----0-0-0-0-0-0-----|
  pm..................|           pm....|   pm    pm....|    pm    pm..........|

E|-----------------------------------------------------------------------------------|
B|-----------------------------------------------------------------------------------|
G|-----------------------------------------------------------------------------------|
D|--------------------9----/7---\5---------------------------------------------------|
A|---5h7-------9h10p9---10----9----7----------3h5---5h7-------9h10---7h9-------------|
E|-0-----0-0-0------------------------\-0-0-0-----0-----0-0-0------0-----0-0-0-0-0-0-|
 pm    pm....|                        pm....|   pm    pm....|    pm    pm..........|

                                                                         end Intro
E|---------------------------------------------------------------------Vibrato-with-||
B|------------------------------------------------------------------------T.Bar-----||
G|-----------------------------------------------------------------------4/\/\/-----||
D|-----------------------9----7---5----------/9----7---5--------9----7---5/\/\/-----||
A3h5---5h7-------9h10p9---10---9---7-9h10p10---10---9---7-/-10----8-----7/\/\/-----||
E|----0-----0-0-0-------------------------------------------------------------------||
    pm    pm....|

  Verse 1
E|-----------------------------------------------------------------------------------|
B|-----------------------------------------------------------------------------------|
G|--------------------------------------------------------5~------------------------|
D|---2-2-2-2-2-2--2-2-2-2-2-2--2-2-2-2-2-2--2--2--2--2----5~----5~------------------|
A|---------------------------------------------------------3~----5~------------------|
E|---------------------------------------------------------------3~---3-3-3-3-5-5-7-7|
    pm....................................|                         pm..............

E|-----------------------------------------------------------------------------------|
B|-----------------------------------------------------------------------------------|
G|------------------------------------------------------------------------------7~---|
D|--------------/2-2-2-2-2-2--2-2-2-2-2-2--2-2-2-2-2-2--2--2--2--2----7~---5~---7~---|
A|--------------------------------------------------------------------7~---5~---5~---|
E|-5-5-3-3-2-2--------------------------------------------------------5~---3~--------|
 ....................................................|

     x2   Bridge
E|-----------------------------------------------------------------------------------|
B|-------|---------------------------------------------------------------------------|
G|------*|---5------------------------------------5----------------------------------|
D|------*|---5-----2---------5--------------------5-----2---------5------------------|
A|-------|---3-----2-------5------------------0h2-3-----2-------5------------------0h|
E|-10-\------------0----3~------1-1-1--1-1-1------------0----3~------1-1-1--1-1-1----|
                              pm...........|                       pm...........|

                                                 Chorus
E|-----------------------------------------------------------------------------------|
B|----------------------------------------------|------------------------------------|
G|----------------------------------------------|-------4-------7-------4-------7----|
D|----/-/-/-/---/-/-/-/-------------------------|---2---4---5---7---2---4---5---7--\-|
A2--\1-5-3-5--/2-6-4-6--2p0-------2-3-2--------|---2---2---5---5---2---2---5---5--\-|
E|----/-/-/-/---/-/-/-/------3-2-0-------5-3-2------0-------3-------0-------3------\-|
                           pm................|

                                     Riff 1
E|-----------------------------------------------------------------------------------|
B|----------------------------------|------------------------------------------------|
G|------4-------7-------4-------7---|----------------7h8p7---------------------------|
D|--2---4---5---7---2---4---5---7---|---------7h8h10-------10p8p7-----------10h12h13-|
A|--2---2---5---5---2---2---5---5---|-10p9h10---------------------/13p12h13----------|
E|--0-------3-------0-------3--------------------------------------------------------|

E|-----------------------------------------------------------------------------------|
B|-----------------------------------------------------------------------------------|
G|-10h12p10--------------------------12-14-15p14p12----------15p14p12----------------|
D|----------13p12p10-/12p11h12h14/15----------------15p14p12----------15p14p12-------|
A|-----------------------------------------------------------------------------13~-\-|
E|-----------------------------------------------------------------------------------|

E|-----------------------------------------------------------------------------------|
B|-----------------------------------------------------------------------------------|
G|-------------------4h5p4-------------------5h7h9p7p5---------------7h9h11-/12p11p9-|
D|-------------4h5h7-------7p5p4-/5p4-/5h7h9-----------9p7-/9p8h9h11-----------------|
A|-12~-\-7p5h7-----------------------------------------------------------------------|
E|-----------------------------------------------------------------------------------|

                                           Verse 2
E|-----------------------------------------------------------------------------------|
B|---------/13p12p10----------------------|------------------------------------------|
G|-------------------12-11-9--------------|------------------------------------------|
D|-12p11p9-------------------12p10p9~~-\--|---2-2-2-2-2-2--2-2-2-2-2-2--2-2-2-2-2-2--|
A|----------------------------------------|------------------------------------------|
E|-----------------------------------------------------------------------------------|
                                            pm.....................................|

E|-----------------------------------------------------------------------------------|
B|-----------------------------------------------------------------------------------|
G|---------------5~------------------------------------------------------------------|
D|-2--2--2--2----5~---5~-------------------------------/-2-2-2-2-2-2-2-2--2--2--2--2-|
A|---------------3~---5~-------------------------------------------------------------|
E|--------------------3~--3-3-3-3-5-5-7-7-5-5-3-3\2-2--------------------------------|
                        pm..............................................|

E|-----------------------------------------------------------------------------------|
B|-----------------------------------------------------------------------------------|
G|------------------------------------------7----------------------------------------|
D|-2-2-2-2-2-2-2-2--2--2--2--2----7----5----7-----------------/-2-2-2-2-2-2-2-2--2--2|
A|--------------------------------7----5----5--7-8-7-5-------------------------------|
E|--------------------------------5----3---------------8-7-5-------------------------|
 pm..............|                           pm...............................|

E|-----------------------------------------------------------------------------------|
B|-----------------------------------------------------------------------------------|
G|--------------------------------------5~-------------------------------------------|
D|-2--2--2-2-2-2-2-2-2-2--2--2--2--2----5~---5~------------------------------/-2-2-2-|
A|--------------------------------------3~---5~--------------------------------------|
E|-------------------------------------------3~--3-3-3-3-5-5-7-7-5-5-3-3\2-2---------|
       pm..............|                       pm...................................

E|-----------------------------------------------------------------------------------|
B|-----------------------------------------------------------------------------------|
G|---------------------------------------------------------------7-------------------|
D|-2-2-2-2-2--2--2--2--2--2-2-2-2-2-2-2-2--2--2--2--2---7---5----7-------------------|
A|------------------------------------------------------7---5----5---7-8-7-5---------|
E|------------------------------------------------------5---3----------------8-7-5---|
 ..........|            pm..............|                          pm............|

                        Interlude
E|-----------------------------------------------------------------------------------|
B|----------|----------|-------------------------------------------------------------|
G|--Bridge|--|--Chorus--|---5---5-------------------------------A.H.--------5---5-----|
D|----------|----------|---5------5---5-----3---3-----------9---10~--9-----5-----5---|
A|----------|----------|---3----------5-----3-----3----------------------/-3---------|
E|------------------------------------3-----1--------/-7-7----7----7---7-------------|
                                                     pm..|  pm   pm  pm

E|-----------------------------------------------------------------------------------|
B|-----------------------------------------------------------------------------------|
G|-----------------------------------------------------------------------------------|
D|--5---5-----3--3----------9---10---9----9~-----------------------------------------|
A|--5-----5---3----3----------------------9~-----------------------------------/2-2-2|
E|--3---------1-------/-7-7---7----7---7--7~---0-0-0-0-0-0-0-0-0-0-0-0-0-0-0-0-------|
                     pm...| pm   pm  pm      pm.....................................

E|-----------------------------------------------------------------------------------|
B|-----------------------------------------------------------------------------------|
G|-----------------------------------------------------------------------------------|
D|-----------------------------------------------------------------------------------|
A|-2-2-2-2-2-2-2-2-2-2-2-2--------------------------------/5-5-5-5-5-5-5-5-5-5-5-5-5-|
E|-------------------------\3-3-3-3-3-3-3-3-3-3-3-3-3-3-3----------------------------|
 ...................................................................................

E|-----------------------------------------------------------------------------------|
B|-----------------------------------------------------------------------------------|
G|-----------------------------------------------------------------------------------|
D|-----------------------------------------------------------------------------------|
A|-5-5-----------------------------------/2-2-2-2-2-2-2-2-2-2-2-2-2-2-2--------------|
E|-----\-0-0-0-0-0-0-0-0-0-0-0-0-0-0-0-0--------------------------------\3-3-3-3-3-3-|
 ...................................................................................

                                                                         Guitar Solo
E|--------------------------------------------------------------------------------/7-|
B|----------------------------------------------------|-----------------|--/8p5------|
G|----------------------------------------------------|--Keyboard-Solo--|-------4----|
D|----------------------------------------------------|-----------------|------------|
A|------------------/5-5-5-5-5-5-5-5-5-5-5-5-5-5-5-5--|-----------------|------------|
E3-3-3-3-3-3-3-3-3------------------------------------------------------------------|
 ..................................................|

Ep3---/12p7-------7------12p7---/15p12----/19p15----------15-------\-15p10----10----|
B|---5-------8---8---8---------8--------12--------17----17----17------------12----12-|
G|-------------9-------9-----------------------------16----------16------------------|
D|-----------------------------------------------------------------------------------|
A|-----------------------------------------------------------------------------------|
E|-----------------------------------------------------------------------------------|

E|-------------------------------------------------------------------------------8---|
B|----12h15p12----------12----------14----------15----------12-------------11--------|
G|-12----------12----11----11----11----11----11----11----11----11-------10----10---10|
D|----------------12----------12----------12----------12----------12-\---------------|
A|-----------------------------------------------------------------------------------|
E|-----------------------------------------------------------------------------------|

E|-9~----------11----12~-/-16-14-------------14-17-16-14-19~-17-16-\14-12------------|
B|-------14----------------------15--15-14~-------------------------------13--13-12~-|
G|----13----13----13-----------------------------------------------------------------|
D|-----------------------------------------------------------------------------------|
A|-----------------------------------------------------------------------------------|
E|-----------------------------------------------------------------------------------|

E|-12-15-14-12-17~--15-14~--16-14-------------14-17-16-14-19~-17-16-\14-12-----------|
B|--------------------------------15--15-14~-------------------------------13--13-12~|
G|-----------------------------------------------------------------------------------|
D|-----------------------------------------------------------------------------------|
A|-----------------------------------------------------------------------------------|
E|-----------------------------------------------------------------------------------|

E|-12-15-14-12-17~--15-14--\-6-------7------/9----------10-------/-12----------14----|
B|-----------------------------7---7---7-------11----11----11---------14----14----14-|
G|-------------------------------6-------6--------11----------11---------15----------|
D|-----------------------------------------------------------------------------------|
A|-----------------------------------------------------------------------------------|
E|-----------------------------------------------------------------------------------|

E|-----/-16----------18----------19p14----------14h19-18h19p18-15-14--14p10----------|
B|----------19----19----19----19-------15----15-----------------------------12----12-|
G|-15----------18----------18-------------16-----------------------------------11----|
D|-----------------------------------------------------------------------------------|
A|-----------------------------------------------------------------------------------|
E|-----------------------------------------------------------------------------------|

E|-10h14-/15-14h15p14-12-11~--/-19p14----------14h19-18h19p18-15-14~--14p10----------|
B|------------------------------------15----15------------------------------12----12-|
G|---------------------------------------16------------------------------------11----|
D|-----------------------------------------------------------------------------------|
A|-----------------------------------------------------------------------------------|
E|-----------------------------------------------------------------------------------|

E|-10h14-/-15-14h15p14-12-11~---17p14----------------------------------------14-14h15|
B|------------------------------------16----------------------------------16---------|
G|---------------------------------------17p14----------------------14h17------------|
D|---------------------------------------------16p13----------13h16------------------|
A|---------------------------------------------------15p12h15------------------------|
E|-----------------------------------------------------------------------------------|

Ep12----------------------------------12----15-/-17p14----14-------16p13----13------|
B|----12----------------------------12----12------------16----16----------15----15---|
G|-------12----------------------12------------------------------17----------------16|
D|----------14----------------14-----------------------------------------------------|
A|-------------14p10----10h14--------------------------------------------------------|
E|-------------------12--------------------------------------------------------------|

E|-15p12----12-------14p11----11--------12~------------------------------------------|
B|-------14----14----------13----13----------13-12~----------------------------------|
G|----------------15----------------14---------------12-11---------------------------|
D|---------------------------------------------------------13-12-\8-7-------9----7---|
A|--------------------------------------------------------------------9--10----8---\-|
E|-----------------------------------------------------------------------------------|

E|---------------------------------------------------------------------------------||
B|--------Trem.bar-----|----------|----------|-------------------------------------||
G|-----------dive|------|--Chorus--|--Riff-1--|--------------------------5~---------|| end
D|--5~~-\\\------------|----------|----------|--------5-5\---------6~---5~---------||
A|--7~~--\\\\\---------|----------|----------|--2-2\--3-3\--2-2\---6~---3~---2-\---||
E|----------\\\\\\------------------------------0-0\--------0-0\---4~--------0-\---||
                                              pm...............|           pm

--------------------------------------------------------------------------------------

  Rhythm Guitar during Keyboard Solo
E|------------------------------------------------------||
B|------------------------------------------------------||
G|--------7--------10---------4---------7---7\--7\--7\--|| end
D|---5----7----8---10----2----4----5----7---7\--7\--7\--||
A|---5----5----8----8----2----2----5----5---5\--5\--5\--||
E|---3---------6---------0---------3--------------------||

  Rhythm Guitar during Guitar Solo
E|-----------------------------------------------------------------------------------|
B|-----------------------------------------------------------------------------------|
G|-----------------------------------------------------------------------------------|
D|---2~~-----------------------------------------------------------------------------|
A|---2~~--------0-2-h5p2----2-2---2-2-\1~--4~----------------------------------------|
E|---0~~--0-2-3-----------3-----2--------------2~-2~-4h5--2~-2~-4h5-\-0~-0~-2h3--0~-0|
          pm....|

E|-----------------------------------------------------------------------------------|
B|-----------------------------------------------------------------------------------|
G|-----------------------------------------------------------------------------------|
D|-----------------------------------------------------------------------------------|
A|-----------------------------------------------------------------------------------|
E~-2h3-/-2~-2~-4h5--2~-2~-4h5--\-0~-0~-2h3--0~-0~-2h3--2-2-2-2-2-2-2-2/6-6-6-6-6-6-6|
                                                      pm............................

E|-----------------------------------------------------------------------------------|
B|-----------------------------------------------------------------------------------|
G|-----------------------------------------------------------------------------------|
D|-------------------------------------9------9-----9-----9--------------------------|
A|---4-4-4-4-4-4-4-4/9-9-9-9-9-9-9-9---9------9-----9-----9----/-9-9-9-9-9-9-9-9-\8-8|
E|-6-----------------------------------7---8~-7--6~-7--8~-7-6~-----------------------|
 ..................................|                           pm...................

E|-----------------------------------------------------------------------------------|
B|-----------------------------------------------------------------------------------|
G|-----------------------------------------------------------------------------------|
D|----------------------------------------------11-11-11-11-11-11-11-11-\-10-10-10-10|
A|-8-8-8-8-8-8\7-7-7-7-7-7-7-7\6-6-6-6-6-6-6-6---9--9--9--9--9--9--9--9-\--8--8--8--8|
E|-----------------------------------------------------------------------------------|
 ............................................|

E|--------------------------------------------------------|| 
B|--------------------------------------------------------||
G|--------------------------------------------------------|| end
D|-10-10-10-10-\-9-9-9-9-9-9-9-9-\8-8-8-8-8-8-8-8---\-----||
A|--8--8--8--8-\-7-7-7-7-7-7-7-7-\6-6-6-6-6-6-6-6---\-----||
E|--------------------------------------------------------||

--------------------------------------------------------------------------------------

=======================
=TABLATURE EXPLANATION=
=======================

A.H. = Artificial Harmonic

pm..| = Palm mute

h = hammer on

p = pull off

/ = slide up

\ = slide down

~ = Vibrato

b() = Bend

x\ = Pick Slide

--------
--------
---12--- = Tremolo pick
----/---
----/---
----/---

---.---
--12--- = Staccato
-------
-------
-------

|     |
|     |
|*   *| = repeat from * to *
|*   *| 
|     |
Compositor não encontrado.
Colaboração e revisão:
  • Taino Vieira
1.021 exibições
    • ½ Tom
    • A
    • Bb
    • B
    • C
    • Db
    • D
    • Eb
    • E
    • F
    • F#
    • G
    • Ab
  • Adicionar à lista

    0 comentários

    Ver todos os comentários

    Conseguiu tocar?

    0 Tocaram 0 Ainda não

    Grave um vídeo tocando Rain Of a Thousand Flames e nos envie!

    00:00 / 00:00
    Outros vídeos desta música
    Repetir Qualidade Automático
    Outros vídeos desta música
    00:00 / 00:00
    Automático

    Cifra Club Pro

    Aproveite o Cifra Club com benefícios exclusivos e sem anúncios
    Cifra Club Pro
    Aproveite o Cifra Club com benefícios exclusivos e sem anúncios
    OK