Cifra Club

Bullet The Blue Sky

Sepultura

Tab de baixo: Principal
exibições 3.053
( B E D G ) Ou Baixo de 5 Cordas com a 5ª em B
 
  INTRO DA BATERIA 
 |----------------|----------------| 
 |----------------|----------------| 
 |----------------|----------------| 2x 
 |----------------|----------------| 
 
 |----------------|----------------| 
 |----------------|----------------| 
 |----------------|----------------| 4x 
 |0~~~~~~~~~~~~~~~|----------------| 
 
 |----------------|----------------| 
 |----------------|----------------| 
 |0-0-0h2-2-2-2-2-|2-2-2-2-2-2-2---| 4X 
 |----------------|----------------| 
 
 VERSO 
 
 |----------------|----------------| 
 |----------------|----------------| 
 |0h2~~~~~~~~~~~~~|----------------|8X 
 |----------------|-------------0~~| 
 
 Refrão 
  
 |----------------|----------------| 
 |----------------|----------------| 
 |0-0-0h2-2-2-2-2-|2-2-2-2-2-2-2---|6X 
 |----------------|----------------| 
 
 PRE SOLO 
 
 |----------------|----------------| 
 |----------------|----------------| 
 |0-0-0h2-2-2-2-2-|2-2-2-2-2-2-2---| 8X 
 |----------------|----------------|
Composição: Bono Vox / SepulturaColaboração e revisão:
  • Juliano Teixeira
  • Felipe Martina

0 comentários

    mostrar mais comentários

    Conseguiu tocar?

    0tocaram0ainda não

    Grave um vídeo tocando Bullet The Blue Sky e mande pra gente!

    00:00 / 00:00
    outros vídeos desta música
    repetirqualidadeautomática
    Outro vídeos desta música
      00:00 / 00:00
      automática
      OK