Cifra Club

Aprenda

I 'm The Only Gay Eskimo

Tenacious D

Cifra: Principal (violão e guitarra)
tom: D
          D                  A
|----------------2-------|------------------|
|----------3-------3---3-|----------2-------|
|------------2-------2---|----2-------2---2-|
|--------0-----0---------|------2-------2---|
|------------------------|--0-----0---------|
|------------------------|------------------|

           Bm                 G
|------------------------|------------------|
|----------------3-------|----------3-------|
|----------4-------4---4-|----4-------4---4-|
|------------4-------4---|------5-------5---|
|--------2-----2---------|--------5---------|
|------------------------|--3---------------|

          D           A          Bm         G
I'm the only gay eskimo, I'm the only one i know,
          D           A       Bm             G
I'm the only gay eskimo in my tribe
  D                            A
I go out seal hunting with my best friend Tarka,
     Bm                     G
But all i wanna do is get into his parka
        D              A         Bm           G
I'm the only gay eskimo in my tribe

       D                                A
Well, me and duck fluck chuck buck, we both like blubber
    Bm                        Gm
But me i've got this crazy yearning for rubber
         D          A           Bm            G
I'm the only gay eskimo in my tribe
 D                       A
I make a wish on the northern lights

     Bm                               G
that i could find a decent pair of whaleskin tights
          D           A         Bm            G
I'm the only gay eskimo in my tribe And the seals thay sing now

          D                     A
|----------------2--2-2-2-|----------0--0-0-0-|
|----------3-----3--3-3-3-|----------2--2-2-2-|
|------------2---2--2-2-2-|----2-----2--2-2-2-|
|--------0-----0-0--0-0-0-|------2---2--2-2-2-|
|----------------x--x-x-x-|--0-----0-0--0-0-0-|
|----------------x--x-x-x-|----------x--x-x-x-|

           Bm                   G
|----------------2--2-2-2-|----------3--3-3-3-|
|----------------3--3-3-3-|----------3--3-3-3-|
|----------4-----4--4-4-4-|----4-----4--4-4-4-|
|------------4---4--4-4-4-|------5---5--5-5-5-|
|--------2-----2-2--2-2-2-|--------5-5--5-5-5-|
|----------------2--2-2-2-|--3-------3--3-3-3-|

       D                        A
These cold winter nights are taking their toll
    Bm                     G
I even get excited when i see the north pole...... See the north pole
          D            A           Bm         G
I'm the only gay eskimo, i'm the only one i know
          D           A       Bm             G
I'm the only gay eskimo in my tribe

D A Bm G
Compositor não encontrado.
Colaboração e revisão:
  • Leonardo Pazzeto
1.419 exibições
    • ½ Tom
    • A
    • Bb
    • B
    • C
    • Db
    • D
    • Eb
    • E
    • F
    • F#
    • G
    • Ab
  • Adicionar à lista

    0 comentários

    Ver todos os comentários

    Conseguiu tocar?

    0 Tocaram 0 Ainda não

    Grave um vídeo tocando I 'm The Only Gay Eskimo e nos envie!

    00:00 / 00:00
    Outros vídeos desta música
    Repetir Qualidade Automático
    Outros vídeos desta música
    00:00 / 00:00
    Automático

    Cifra Club Pro

    Aproveite o Cifra Club com benefícios exclusivos e sem anúncios
    Cifra Club Pro
    Aproveite o Cifra Club com benefícios exclusivos e sem anúncios
    OK