Cifra Club

What´s My Age Again ?

blink-182

Tab de baixo: Versão 2
G||-------------------|------------------|------------------|------------------|
D||*------------------|------------------|------------------|------------------|
A||*------------------|------------------|------------------|------------------|
E||-------------------|------------------|------------------|------------------|


                                                      
--------------------------|--------------------------|
--------------------------|--------------------------|
--2--2--2--2--------------|--4--4--4--4--6--6--6--6--|
--------------2--2--2--2--|--------------------------|


                                                      
--------------------------|--------------------------|
--------------------------|--------------------------|
--2--2--2--2--------------|--4--4--4--4--6--6--6--6--|
--------------2--2--2--2--|--------------------------|


                                                      
--------------------------|--------------------------|
--------------------------|--------------------------|
--2--2--2--2--------------|--4--4--4--4--6--6--6--6--|
--------------2--2--2--2--|--------------------------|


                                                      
--------------------------|--------------------------|
--------------------------|--------------------------|
--2--2--2--2--------------|--4--4--4--4--6--6--6--6--|
--------------2--2--2--2--|--------------------------|


                                                      
--------------------------|--------------------------|
--------------------------|--------------------------|
--2--2--2--2--------------|--4--4--4--4--6--6--6--6--|
--------------2--2--2--2--|--------------------------|


                                                      
--------------------------|--------------------------|
--------------------------|--------------------------|
--2--2--2--2--------------|--4--4--4--4--6--6--6--6--|
--------------2--2--2--2--|--------------------------|


                                                                        
--------------------------|----------------------|---------------------|
--------------------------|----------------------|---------------------|
--4--4--4--4--2--2--2--2--|---------4--4------6--|--6------2--2--------|
--------------------------|--2-------------------|---------------------|


                                                                    
----------------------|---------------------|----------------------|
----------------------|---------------------|----------------------|
---------4--4------6--|--6------2--2--------|---------4--4------6--|
--2-------------------|---------------------|--2-------------------|


                                                                        
---------------------|----------------------|--------------------------|
---------------------|----------------------|--------------------------|
--6------2--2--------|---------4--4------6--|--6--6--6--6--6--6--6--6--|
---------------------|--2-------------------|--------------------------|


                                                                 
--------------------------|------------------|------------------|
--------------------------|------------------|------------------|
--4--4--4--4--4--4--4--4--|------------------|------------------|
--------------------------|------------------|------------------|


                                                      
--------------------------|--------------------------|
--------------------------|--------------------------|
--2--2--2--2--------------|--4--4--4--4--6--6--6--6--|
--------------2--2--2--2--|--------------------------|


                                                      
--------------------------|--------------------------|
--------------------------|--------------------------|
--2--2--2--2--------------|--4--4--4--4--6--6--6--6--|
--------------2--2--2--2--|--------------------------|


                                                      
--------------------------|--------------------------|
--------------------------|--------------------------|
--2--2--2--2--------------|--4--4--4--4--6--6--6--6--|
--------------2--2--2--2--|--------------------------|


                                                      
--------------------------|--------------------------|
--------------------------|--------------------------|
--2--2--2--2--------------|--4--4--4--4--4--4--4--4--|
--------------2--2--2--2--|--------------------------|


                                                                        
--------------------------|----------------------|---------------------|
--------------------------|----------------------|---------------------|
--2--2--2--2--2--2--2--2--|---------4--4------6--|--6------2--2--------|
--------------------------|--2-------------------|---------------------|


                                                                    
----------------------|---------------------|----------------------|
----------------------|---------------------|----------------------|
---------4--4------6--|--6------2--2--------|---------4--4------6--|
--2-------------------|---------------------|--2-------------------|


                                                                        
---------------------|----------------------|--------------------------|
---------------------|----------------------|--------------------------|
--6------2--2--------|---------4--4------6--|--6--6--6--6--6--6--6--6--|
---------------------|--2-------------------|--------------------------|


                                                      
--------------------------|--------------------------|
--------------------------|--------------------------|
--4--4--4--4--4--4--4--4--|--6--6--6--6--6--6--6--6--|
--------------------------|--------------------------|


                                                      
--------------------------|--------------------------|
--------------------------|--------------------------|
--4--4--4--4--4--4--4--4--|--2--2--2--2--2--2--2--2--|
--------------------------|--------------------------|


                                                      
--------------------------|--------------------------|
--------------------------|--------------------------|
--4--4--4--4--4--4--4--4--|--6--6--6--6--6--6--6--6--|
--------------------------|--------------------------|


                                                      
--------------------------|--------------------------|
--------------------------|--------------------------|
--4--4--4--4--4--4--4--4--|--2--2--2--2--2--2--2--2--|
--------------------------|--------------------------|


                                                      
--------------------------|--------------------------|
--------------------------|--------------------------|
--4--4--4--4--4--4--4--4--|--6--6--6--6--6--6--6--6--|
--------------------------|--------------------------|


                                                      
--------------------------|--------------------------|
--------------------------|--------------------------|
--4--4--4--4--4--4--4--4--|--2--2--2--2--2--2--2--2--|
--------------------------|--------------------------|


                                                      
--------------------------|--------------------------|
--------------------------|--------------------------|
--4--4--4--4--4--4--4--4--|--6--6--6--6--6--6--6--6--|
--------------------------|--------------------------|


                                                      
--------------------------|--------------------------|
--------------------------|--------------------------|
--4--4--4--4--4--4--4--4--|--2--2--2--2--2--2--2--2--|
--------------------------|--------------------------|


                                                                        
--------------------------|----------------------|---------------------|
--------------------------|----------------------|---------------------|
--4--4--4--4--4--4--4--4--|---------4--4------6--|--6------2--2--------|
--------------------------|--2-------------------|---------------------|


                                                                    
----------------------|---------------------|----------------------|
----------------------|---------------------|----------------------|
---------4--4------6--|--6------2--2--------|---------4--4------6--|
--2-------------------|---------------------|--2-------------------|


                                                                        
---------------------|----------------------|--------------------------|
---------------------|----------------------|--------------------------|
--6------2--2--------|---------4--4------6--|--6--6--6--6--6--6--6--6--|
---------------------|--2-------------------|--------------------------|


                                                                        
--------------------------|----------------------|---------------------|
--------------------------|----------------------|---------------------|
--4--4--4--4--4--4--4--4--|---------4--4------6--|--6------2--2--------|
--------------------------|--2-------------------|---------------------|


                                                                    
----------------------|---------------------|----------------------|
----------------------|---------------------|----------------------|
---------4--4------6--|--6------2--2--------|---------4--4------6--|
--2-------------------|---------------------|--2-------------------|


                                                                        
---------------------|----------------------|--------------------------|
---------------------|----------------------|--------------------------|
--6------2--2--------|---------4--4------6--|--6--6--6--6--6--6--6--6--|
---------------------|--2-------------------|--------------------------|


                                                                        
--------------------------|----------------------|---------------------|
--------------------------|----------------------|---------------------|
--4--4--4--4--4--4--4--4--|---------4--4------6--|--6------2--2--------|
--------------------------|--2-------------------|---------------------|


                                                                    
----------------------|---------------------|----------------------|
----------------------|---------------------|----------------------|
---------4--4------6--|--6------2--2--------|---------4--4------6--|
--2-------------------|---------------------|--2-------------------|


                                                                        
---------------------|----------------------|--------------------------|
---------------------|----------------------|--------------------------|
--6------2--2--------|---------4--4------6--|--6--6--6--6--6--6--6--6--|
---------------------|--2-------------------|--------------------------|


                                                                  
--------------------------|------------------|------------------||
--------------------------|------------------|------------------||
--4--4--4--4--4--4--4--4--|------------------|------------------||
--------------------------|------------------|------------------||
exibições 8.085
Colaboração e revisão:
  • Fagner oliveira

0 comentários

mostrar mais comentários

Conseguiu tocar?

0 tocaram 0 ainda não

Grave um vídeo tocando What´s My Age Again ? e mande pra gente!

00:00 / 00:00
outros vídeos desta música
repetir qualidade Automático
Outros vídeos desta música
00:00 / 00:00
Automático
OK