Cifra Club

Bad Medicine

Bon Jovi

Tab de baixo: Principal
                                                                   your...           bad...
g-----|-----|-----------|----------|-----|-----|-----------|----------------------|-----------------|
d-----|-----|-----------|----------|-----|-----|-----------|----------------------|-----------------|
a-----|-----|-----------|-------7--|-----|-----|-----------|-------7--------7-----|--0-----------7--|
e-----|-----|--3--2--0--|--(0)-----|-----|-----|--3--2--0--|--(0)--------0-----0--|-----3--2--0-----|

                         what I...                  shake it...           bad medicine
|---------------------|--------------------------|-----0---------------|---------------------|
|---------------------|-----------------------2--|--------2---2--------|---------------------|
|--0--0---0--0--0--2--|-----------------2--4-----|--2------------2-----|--0---0-----------7--|
|---------------------|--3--2--0--0--------------|------------------0--|---------3--2--0-----|

   there ain't...        cure my...
|---------------------|-------------------|-------------------|-----------------|-------------------|-----|
|---------------------|-------------------|-------------------|-----------------|-------------------|-----|
|--0--0---0--0--0--2--|-------------------|-------------------|-----------0-----|-------------------|-----|
|---------------------|--3--2--0--0---7\--|--0--0---0--0---0--|--0--0--0-----3--|--0--0---0--0---0--|--0--|
 
   ain't got...             permanent...   take more...        scribe a...         got lots...
   don't need...            giving me...   need no...          nurse to...         dirty down...
|------------------------|--------------|-------------------|------------------|--------------------|
|*-----------------------|--------------|-------------------|------------------|--------------------|
|*-----------------------|--------0-----|-------------------|------------0-----|--0---0---0--0---0--|
|--(0)--0--0---0--0---0--|--0--0-----3--|--0--0---0--0---0--|--0---0--0-----3--|-----------------0--|

   isn't...              take more...         poison...           I got...
   doesn't...            jones for...         monkey...           ain't...             save this...
|---------------------|--------------------|-------------------|--------------------|----------------------|
|---------------------|--------------------|-------------------|--------------------|----------------------|
|--0---0-----0--0-----|--------------------|------------0------|--2---2---2--2---2--|--2---2---2-----------|
|---------0--------3--|--0---0---0--0---0--|--0---0--0------3--|--------------------|-------------3--2--3--|
             falling..
                          get a      never              that's             falling...
|---------|-----------|-----------|-----------------|-------------------|------------------------|
|---------|-----------|-----------|-----------------|-------------------|---------------------0--|
|------7--|-----------|--------7--|--7--------------|-------------------|---------------2--4-----|
|--0------|--3--2--0--|--(0)------|--------0--0--2--|--2---2---2--2--2--|--2--2--2---2-----------|

                        kiss is...              your...              bad...
|--------------------|-----------------------|--------------------|------------------|---------------------|
|--0-----0-----------|-----------------------|--------------------|------------------|---------------------|
|-----0-----4--3--2--|--2--2--0--2--0--------|-----7--------7-----|--0------------7--|--0--0---0--0--0--2--|
|--------------------|-----------------2--3--|--0--------0-----0--|------3--2--0-----|---------------------|

   what I...                shake it...           bad medicine          there ain't...        cure my...
                                                                        so let's...              
|------------------------|-----0---------------|---------------------|---------------------|-----------------------|
|---------------------2--|--------2---2--------|---------------------|---------------------|-----------------------|
|---------------2--4-----|--2------------2-----|--0---0-----------7--|--0--0---0--0--0--2--|-----------------------|
|--3--2--0--0------------|------------------0--|---------3--2--0-----|---------------------|--3--2--0--0---0--0--2-|

                                                   1___________________ 2_____________________
   bad                      bad                                           medicine
|------------------------|------------------------|--------------|-----|----------------------|
|------------------------|------------------------|--------------|----*|----------------------|
|------------------------|--0--0--0--0--0--0--3/--|--7-----(7)\--|----*|-----7----------------|
|--3---3--3--3--3--3--3--|------------------------|--------------|--0--|--0-----0---0--0---0--|

   what I...               bad                       bad                          medicine   what I
|----------------------|--------------------------|----------------------------|----------|-----------|
|----------------------|-----------1--2--0--------|-------------2--5--4--2--2--|--2-------|-----------|
|----------------------|--------2-----------2--0--|--(0)--0--4-----------------|----------|--------0--|
|--0---0---0--0--0--1--|--3--3--------------------|----------------------------|----------|--3--3-----|

GUITAR SOLO
|-----------------------------|--------------------------|---------------------|--------------------------|
|-----------------------------|--------------------------|---------------------|--------------------------|
|--(0)--0--0--0---0--0--0--0--|--0-----0-----0--4--------|---------------------|-----------------------0--|
|-----------------------------|-----0-----0--------3--0--|--0--2--0--3--0---0--|--0--0--2--0--3--0--4-----|

|-----------------------------|------------------------|--------------------------|--------------------------|
|-----------------------------|------------------------|--------------------------|--------------0--0--1--1--|
|--(0)--0--0--0---0--0--0--0--|--0--0--0---0-----0--1--|--2--2--2--2--2--2--2--2--|--2--2--4--4--------------|
|-----------------------------|---------------3--------|--------------------------|--------------------------|

   need a         running...      all night...    stockings...      when you...
|--------------|---------------|---------------|-----------------|--------------------------|
|--2-----------|---------------|---------------|-----------------|--------------0--1-----0--|
|--------------|---------------|---------------|-------------9\--|--2--2--2--2--------2-----|
|--------------|---------------|---------------|-----------------|--------------------------|

   take what...               something...     haven't...             your love...                bad...
|--------------------------|----------------|----------------------|---------0-----------------|-----------------|
|--1--0--1-----0--1--0--1--|--2-------------|----------------------|*-2------2--2--2--2--------|-----------------|
|-----------2--------------|----------------|----------------------|*----2---------------2-----|--0-----------7--|
|--------------------------|----------------|-------------3--2--0--|--0--0---------0--0-----0--|-----3--2--0-----|

                        what I...                shake...             bad...
|--------------------|------------------------|-----2--------------|------------------|--------------------|
|--------------------|---------------------2--|--------0--2--------|------------------|--------------------|
|--0--0--0--0--0--2--|---------------2--4-----|--2-----------2-----|--0------------7--|--0--0--0--0--0--2--|
|--------------------|--3--2--0--0------------|-----------------0--|------3--2--0-----|--------------------|

 1__________________     2____________
   cure my...              cure my...               bad                    bad
|-----------------------|------------------------|----------------------|--------------------|
|--------------------2-*|------------------------|----------------------|--------------------|
|--------------2--4----*|------------------------|----------------------|--0--0-----0--0--0--|
|--3--2--0--0-----------|--3--2--0--0---0--0--2--|--3--3---3--3---3--3--|--------0-----------|

   medicine...            what I...                  bad                        bad
|----------------------|--------------------------|--------------------------|--------------------|
|----------------------|--------------------------|*----------0--2--0--------|--------2--5--4--2--|
|----------------------|-----7--------------------|*-------2-----------2--0--|--0--4--------------|
|--0--0--0---0--0---0--|--0-----0--0--0--0--1--2--|--3--3--------------------|--------------------|

                                                       2__________________
   medicine                                              medicine         got       gotta do it again
|--------------------------|--------------------------|----------------|---------|--------------------|
|--------------------------|-------------------------*|----------------|---------|--------------------|
|--------------------------|-------------------------*|----------------|---------|--------------------|
|--0--0--0--0--0--0--0--0--|--0--0--0--0--0--0--1--2--|--3--2--0----3--|--2---0--|--------------------|

   wait a minute...     hold on     I'm not done    one more time    with feeling    come on
|--------------------|-----------|---------------|----------------|---------------|-----------|
|--------------------|-----------|---------------|----------------|---------------|-----------|
|--------------------|-----------|---------------|----------------|---------------|-----------|
|--(0)---------------|-----------|---------------|----------------|---------------|--3--2--0--|

   alright                                    now                        your love...
|--------------|------------|--------------|--------------------------|--------------------|
|--------------|------------|--------------|--------------------------|--------------------|
|-------7---7--|--7---7--7--|--7--7--7--7--|--7--7--7--7--7-----------|-----7--------7-----|
|--(0)---------|------------|--------------|-----------------3--2--0--|--0--------0-----0--|

   bad medicine          bad medicine         what I...               shake it...
|---------------------|--------------------|-----------------------|-----0---------------|
|---------------------|--------------------|--------------------2--|--------2---2--------|
|--0---0-----------7--|--0--0--0--0--0--2--|--------------2--4-----|--2------------2-----|
|---------3--2--0-----|--------------------|--3--2--0--0-----------|------------------0--|

   bad medicine       you got...            cure my...               your love             bad medicine
                                            what I...            
|------------------|---------------------|------------------------|-----0---------------|-----------------|
|------------------|---------------------|*--------------------2--|--------2---2--------|-----------------|
|--0------------7--|--0--0---0--0--0--2--|*--------------2--4-----|--2------------2-----|--0-----------7--|
|------3--2--0-----|---------------------|--3--2--0--0------------|------------------0--|-----3--2--0-----|

|---------------------|
|--------------------*|
|--0--0---0--0--0--2-*|
|---------------------|
exibições 3.039
Composição: Jon Bon Jovi / Richie Sambora / Sérgio Bittencourt Colaboração e revisão:
  • valdir júnior

0 comentários

mostrar mais comentários

Conseguiu tocar?

1 tocaram 0 ainda não

Grave um vídeo tocando Bad Medicine e mande pra gente!

00:00 / 00:00
outros vídeos desta música
repetir qualidade Automático
Outros vídeos desta música
00:00 / 00:00
Automático
OK